  0
SECTION
  2
HEADER
  9
$ACADVER
  1
AC1009
999
I-DEAS 8 Not Encoded
  9
$EXTMIN
 10
0.0
 20
0.0
  9
$EXTMAX
 10
4.2E+002
 20
2.97E+002
  9
$TEXTSIZE
 40
1.25E-001
  9
$LTSCALE
 40
1.0
  9
$CLAYER
  8
104
  9
$CECOLOR
 62
40
  9
$DIMASZ
 40
1.25E-001
  9
$DIMEXO
 40
6.25E-002
  9
$DIMDLI
 40
2.5E-001
  9
$DIMEXE
 40
1.25E-001
  9
$DIMTP
 40
5.0E-003
  9
$DIMTM
 40
-5.0E-003
  9
$DIMTXT
 40
3.0
  9
$DIMLIM
 70
0
  9
$DIMTIH
 70
1
  9
$DIMTOH
 70
1
  9
$DIMSE1
 70
0
  9
$DIMSE2
 70
0
  9
$DIMTAD
 70
0
  9
$DIMASO
 70
1
  9
$DIMALT
 70
0
  9
$DIMALTD
 70
0
  9
$DIMTOFL
 70
1
  9
$DIMTIX
 70
0
  9
$DIMSAH
 70
0
  9
$DIMTFAC
 40
1.0
  9
$DIMGAP
 40
6.25E-002
  9
$LUNITS
 70
2
  9
$LUPREC
 70
3
  9
$FILLETRAD
 40
2.0
  9
$AUNITS
 70
0
  9
$AUPREC
 70
1
  9
$CHAMFERA
 40
1.0E+001
  9
$CHAMFERB
 40
1.0E+001
  9
$ANGBASE
 50
0.0
  9
$ANGDIR
 70
0
  9
$PDMODE
 70
2
  9
$PDSIZE
 40
-1.0E-002
  9
$SPLINETYPE
 70
6
  0
ENDSEC
  0
SECTION
  2
TABLES
  0
TABLE
  2
LTYPE
 70
7
  0
LTYPE
  2
HIDDENNEW00
  3
_ 
 70
64
 72
65
 73
3
 40
4.5
 49
1.5
 49
-1.5
 49
1.5
  0
LTYPE
  2
HIDDENNEW01
  3
_ 
 70
64
 72
65
 73
3
 40
4.5
 49
1.5
 49
-1.5
 49
1.5
  0
LTYPE
  2
HIDDEN
  3
_ 
 70
64
 72
65
 73
3
 40
4.5
 49
1.5
 49
-1.5
 49
1.5
  0
LTYPE
  2
CENTERLINE
  3
_ 
 70
64
 72
65
 73
5
 40
3.0E+001
 49
1.2E+001
 49
-1.5
 49
3.0
 49
-1.5
 49
1.2E+001
  0
LTYPE
  2
PHANTOM
  3
_ 
 70
64
 72
65
 73
7
 40
2.95E+001
 49
9.5
 49
-1.5
 49
3.0
 49
-1.5
 49
3.0
 49
-1.5
 49
9.5
  0
LTYPE
  2
SHORT_DASH
  3
_ 
 70
64
 72
65
 73
3
 40
3.0
 49
7.5E-001
 49
-1.5
 49
7.5E-001
  0
LTYPE
  2
LONG_DASH
  3
_ 
 70
64
 72
65
 73
3
 40
9.0
 49
2.25
 49
-4.5
 49
2.25
  0
ENDTAB
  0
TABLE
  2
LAYER
 70
258
  0
LAYER
  2
MED-1
 70
0
 62
3
  6
HIDDENNEW00
  0
LAYER
  2
2
 70
0
 62
7
  6
CONTINUOUS
  0
LAYER
  2
3
 70
0
 62
7
  6
CONTINUOUS
  0
LAYER
  2
4
 70
0
 62
7
  6
CONTINUOUS
  0
LAYER
  2
MED-5
 70
0
 62
5
  6
HIDDENNEW00
  0
LAYER
  2
MED-6
 70
0
 62
6
  6
HIDDENNEW00
  0
LAYER
  2
7
 70
0
 62
7
  6
CONTINUOUS
  0
LAYER
  2
8
 70
0
 62
7
  6
CONTINUOUS
  0
LAYER
  2
9
 70
0
 62
7
  6
CONTINUOUS
  0
LAYER
  2
10
 70
0
 62
7
  6
CONTINUOUS
  0
LAYER
  2
MED-11
 70
0
 62
70
  6
HIDDENNEW00
  0
LAYER
  2
12
 70
0
 62
7
  6
CONTINUOUS
  0
LAYER
  2
13
 70
0
 62
7
  6
CONTINUOUS
  0
LAYER
  2
14
 70
0
 62
7
  6
CONTINUOUS
  0
LAYER
  2
15
 70
0
 62
7
  6
CONTINUOUS
  0
LAYER
  2
16
 70
0
 62
7
  6
CONTINUOUS
  0
LAYER
  2
17
 70
0
 62
7
  6
CONTINUOUS
  0
LAYER
  2
18
 70
0
 62
7
  6
CONTINUOUS
  0
LAYER
  2
19
 70
0
 62
7
  6
CONTINUOUS
  0
LAYER
  2
20
 70
0
 62
7
  6
CONTINUOUS
  0
LAYER
  2
21
 70
0
 62
7
  6
CONTINUOUS
  0
LAYER
  2
22
 70
0
 62
7
  6
CONTINUOUS
  0
LAYER
  2
23
 70
0
 62
7
  6
CONTINUOUS
  0
LAYER
  2
24
 70
0
 62
7
  6
CONTINUOUS
  0
LAYER
  2
25
 70
0
 62
7
  6
CONTINUOUS
  0
LAYER
  2
26
 70
0
 62
7
  6
CONTINUOUS
  0
LAYER
  2
27
 70
0
 62
7
  6
CONTINUOUS
  0
LAYER
  2
28
 70
0
 62
7
  6
CONTINUOUS
  0
LAYER
  2
29
 70
0
 62
7
  6
CONTINUOUS
  0
LAYER
  2
30
 70
0
 62
7
  6
CONTINUOUS
  0
LAYER
  2
31
 70
0
 62
7
  6
CONTINUOUS
  0
LAYER
  2
32
 70
0
 62
7
  6
CONTINUOUS
  0
LAYER
  2
33
 70
0
 62
7
  6
CONTINUOUS
  0
LAYER
  2
34
 70
0
 62
7
  6
CONTINUOUS
  0
LAYER
  2
35
 70
0
 62
7
  6
CONTINUOUS
  0
LAYER
  2
36
 70
0
 62
7
  6
CONTINUOUS
  0
LAYER
  2
37
 70
0
 62
7
  6
CONTINUOUS
  0
LAYER
  2
38
 70
0
 62
7
  6
CONTINUOUS
  0
LAYER
  2
39
 70
0
 62
7
  6
CONTINUOUS
  0
LAYER
  2
40
 70
0
 62
7
  6
CONTINUOUS
  0
LAYER
  2
41
 70
0
 62
7
  6
CONTINUOUS
  0
LAYER
  2
42
 70
0
 62
7
  6
CONTINUOUS
  0
LAYER
  2
43
 70
0
 62
7
  6
CONTINUOUS
  0
LAYER
  2
44
 70
0
 62
7
  6
CONTINUOUS
  0
LAYER
  2
45
 70
0
 62
7
  6
CONTINUOUS
  0
LAYER
  2
46
 70
0
 62
7
  6
CONTINUOUS
  0
LAYER
  2
47
 70
0
 62
7
  6
CONTINUOUS
  0
LAYER
  2
48
 70
0
 62
7
  6
CONTINUOUS
  0
LAYER
  2
49
 70
0
 62
7
  6
CONTINUOUS
  0
LAYER
  2
50
 70
0
 62
7
  6
CONTINUOUS
  0
LAYER
  2
51
 70
0
 62
7
  6
CONTINUOUS
  0
LAYER
  2
52
 70
0
 62
7
  6
CONTINUOUS
  0
LAYER
  2
53
 70
0
 62
7
  6
CONTINUOUS
  0
LAYER
  2
54
 70
0
 62
7
  6
CONTINUOUS
  0
LAYER
  2
55
 70
0
 62
7
  6
CONTINUOUS
  0
LAYER
  2
56
 70
0
 62
7
  6
CONTINUOUS
  0
LAYER
  2
57
 70
0
 62
7
  6
CONTINUOUS
  0
LAYER
  2
58
 70
0
 62
7
  6
CONTINUOUS
  0
LAYER
  2
59
 70
0
 62
7
  6
CONTINUOUS
  0
LAYER
  2
60
 70
0
 62
7
  6
CONTINUOUS
  0
LAYER
  2
61
 70
0
 62
7
  6
CONTINUOUS
  0
LAYER
  2
62
 70
0
 62
7
  6
CONTINUOUS
  0
LAYER
  2
63
 70
0
 62
7
  6
CONTINUOUS
  0
LAYER
  2
64
 70
0
 62
7
  6
CONTINUOUS
  0
LAYER
  2
65
 70
0
 62
7
  6
CONTINUOUS
  0
LAYER
  2
66
 70
0
 62
7
  6
CONTINUOUS
  0
LAYER
  2
67
 70
0
 62
7
  6
CONTINUOUS
  0
LAYER
  2
68
 70
0
 62
7
  6
CONTINUOUS
  0
LAYER
  2
69
 70
0
 62
7
  6
CONTINUOUS
  0
LAYER
  2
70
 70
0
 62
7
  6
CONTINUOUS
  0
LAYER
  2
71
 70
0
 62
7
  6
CONTINUOUS
  0
LAYER
  2
72
 70
0
 62
7
  6
CONTINUOUS
  0
LAYER
  2
73
 70
0
 62
7
  6
CONTINUOUS
  0
LAYER
  2
74
 70
0
 62
7
  6
CONTINUOUS
  0
LAYER
  2
75
 70
0
 62
7
  6
CONTINUOUS
  0
LAYER
  2
76
 70
0
 62
7
  6
CONTINUOUS
  0
LAYER
  2
77
 70
0
 62
7
  6
CONTINUOUS
  0
LAYER
  2
78
 70
0
 62
7
  6
CONTINUOUS
  0
LAYER
  2
79
 70
0
 62
7
  6
CONTINUOUS
  0
LAYER
  2
80
 70
0
 62
7
  6
CONTINUOUS
  0
LAYER
  2
81
 70
0
 62
7
  6
CONTINUOUS
  0
LAYER
  2
82
 70
0
 62
7
  6
CONTINUOUS
  0
LAYER
  2
83
 70
0
 62
7
  6
CONTINUOUS
  0
LAYER
  2
84
 70
0
 62
7
  6
CONTINUOUS
  0
LAYER
  2
85
 70
0
 62
7
  6
CONTINUOUS
  0
LAYER
  2
86
 70
0
 62
7
  6
CONTINUOUS
  0
LAYER
  2
87
 70
0
 62
7
  6
CONTINUOUS
  0
LAYER
  2
88
 70
0
 62
7
  6
CONTINUOUS
  0
LAYER
  2
89
 70
0
 62
7
  6
CONTINUOUS
  0
LAYER
  2
90
 70
0
 62
7
  6
CONTINUOUS
  0
LAYER
  2
91
 70
0
 62
7
  6
CONTINUOUS
  0
LAYER
  2
92
 70
0
 62
7
  6
CONTINUOUS
  0
LAYER
  2
93
 70
0
 62
7
  6
CONTINUOUS
  0
LAYER
  2
94
 70
0
 62
7
  6
CONTINUOUS
  0
LAYER
  2
95
 70
0
 62
7
  6
CONTINUOUS
  0
LAYER
  2
96
 70
0
 62
7
  6
CONTINUOUS
  0
LAYER
  2
97
 70
0
 62
7
  6
CONTINUOUS
  0
LAYER
  2
98
 70
0
 62
7
  6
CONTINUOUS
  0
LAYER
  2
99
 70
0
 62
7
  6
CONTINUOUS
  0
LAYER
  2
MED-0
 70
0
 62
230
  6
HIDDENNEW00
  0
LAYER
  2
101
 70
0
 62
7
  6
CONTINUOUS
  0
LAYER
  2
102
 70
0
 62
7
  6
CONTINUOUS
  0
LAYER
  2
103
 70
0
 62
7
  6
CONTINUOUS
  0
LAYER
  2
104
 70
0
 62
7
  6
CONTINUOUS
  0
LAYER
  2
105
 70
0
 62
7
  6
CONTINUOUS
  0
LAYER
  2
106
 70
0
 62
7
  6
CONTINUOUS
  0
LAYER
  2
107
 70
0
 62
7
  6
CONTINUOUS
  0
LAYER
  2
108
 70
0
 62
7
  6
CONTINUOUS
  0
LAYER
  2
109
 70
0
 62
7
  6
CONTINUOUS
  0
LAYER
  2
Drafting_Hidden_Entities
 70
1
 62
7
  6
CONTINUOUS
  0
ENDTAB
  0
TABLE
  2
STYLE
 70
1
  0
STYLE
  2
STANDARD
 70
64
 40
0.0
 41
1.0
 50
0.0
 71
0
 42
1.0
  3
monotxt.shx
  4

  0
ENDTAB
  0
TABLE
  2
VIEW
 70
0
  0
ENDTAB
  0
TABLE
  2
DIMSTYLE
 70
0
  0
ENDTAB
  0
ENDSEC
  0
SECTION
  2
BLOCKS
  0
BLOCK
  2
1
 10
0.0
 20
0.0
 70
0
  0
LINE
  8
MED-1
  6
CONTINUOUS
 62
40
 10
0.0
 20
-7.5
 11
0.0
 21
0.0
  0
LINE
  8
104
  6
CONTINUOUS
 62
1
 10
0.0
 20
0.0
 11
1.2425E+001
 21
0.0
  0
LINE
  8
106
  6
CENTERLINE
 62
1
 10
-2.04999E+001
 20
7.551
 11
-2.04999E+001
 21
-1.0988E+001
  0
CIRCLE
  8
104
  6
CONTINUOUS
 62
40
 10
-2.04999E+001
 20
-3.75E+001
 40
6.0
  0
LINE
  8
104
  6
CONTINUOUS
 62
40
 10
-1.90565E+001
 20
-3.5E+001
 11
-2.19433E+001
 21
-3.5E+001
  0
LINE
  8
104
  6
CONTINUOUS
 62
40
 10
-2.19433E+001
 20
-3.5E+001
 11
-2.33867E+001
 21
-3.75E+001
  0
LINE
  8
104
  6
CONTINUOUS
 62
40
 10
-2.33867E+001
 20
-3.75E+001
 11
-2.19433E+001
 21
-4.0E+001
  0
LINE
  8
104
  6
CONTINUOUS
 62
40
 10
-2.19433E+001
 20
-4.0E+001
 11
-1.90565E+001
 21
-4.0E+001
  0
LINE
  8
104
  6
CONTINUOUS
 62
40
 10
-1.90565E+001
 20
-4.0E+001
 11
-1.76132E+001
 21
-3.75E+001
  0
LINE
  8
104
  6
CONTINUOUS
 62
40
 10
-1.76132E+001
 20
-3.75E+001
 11
-1.90565E+001
 21
-3.5E+001
  0
LINE
  8
106
  6
CENTERLINE
 62
1
 10
-2.92344E+001
 20
-3.75E+001
 11
-1.13139E+001
 21
-3.75E+001
  0
LINE
  8
106
  6
CENTERLINE
 62
1
 10
-2.04999E+001
 20
-4.6483E+001
 11
-2.04999E+001
 21
-2.8948E+001
  0
LINE
  8
106
  6
CENTERLINE
 62
1
 10
-1.684
 20
-6.0E+001
 11
-3.50339E+001
 21
-6.0E+001
  0
LINE
  8
106
  6
CENTERLINE
 62
1
 10
-1.684
 20
-1.5E+001
 11
-3.50339E+001
 21
-1.5E+001
  0
LINE
  8
104
  6
CONTINUOUS
 62
40
 10
-5.5592
 20
-6.75E+001
 11
-1.21037E+001
 21
-7.175E+001
  0
LINE
  8
104
  6
CONTINUOUS
 62
40
 10
-1.21037E+001
 20
-7.175E+001
 11
-2.88962E+001
 21
-7.175E+001
  0
LINE
  8
104
  6
CONTINUOUS
 62
40
 10
-2.88962E+001
 20
-7.175E+001
 11
-3.54406E+001
 21
-6.75E+001
  0
LINE
  8
104
  6
CONTINUOUS
 62
40
 10
-4.24999E+001
 20
-7.5
 11
-4.24999E+001
 21
-9.8
  0
LINE
  8
104
  6
CONTINUOUS
 62
40
 10
-4.24999E+001
 20
-9.8
 11
-4.23863E+001
 21
-9.8
  0
LINE
  8
104
  6
CONTINUOUS
 62
40
 10
-4.23863E+001
 20
-9.8
 11
-4.09999E+001
 21
-9.063
  0
LINE
  8
104
  6
CONTINUOUS
 62
40
 10
-4.09999E+001
 20
-9.063
 11
-4.09999E+001
 21
-6.5937E+001
  0
LINE
  8
104
  6
CONTINUOUS
 62
40
 10
-4.09999E+001
 20
-6.5937E+001
 11
-4.23862E+001
 21
-6.52E+001
  0
LINE
  8
104
  6
CONTINUOUS
 62
40
 10
-4.23862E+001
 20
-6.52E+001
 11
-4.24999E+001
 21
-6.52E+001
  0
LINE
  8
104
  6
CONTINUOUS
 62
40
 10
-4.24999E+001
 20
-6.52E+001
 11
-4.24999E+001
 21
-6.75E+001
  0
LINE
  8
104
  6
CONTINUOUS
 62
40
 10
-4.24999E+001
 20
-6.75E+001
 11
0.0
 21
-6.75E+001
  0
LINE
  8
104
  6
CONTINUOUS
 62
40
 10
0.0
 20
-6.75E+001
 11
0.0
 21
-7.5
  0
LINE
  8
104
  6
CONTINUOUS
 62
40
 10
0.0
 20
-7.5
 11
-4.24999E+001
 21
-7.5
  0
LINE
  8
104
  6
CONTINUOUS
 62
40
 10
-4.09999E+001
 20
-9.4
 11
-4.14999E+001
 21
-9.4
  0
LINE
  8
104
  6
CONTINUOUS
 62
40
 10
-4.14999E+001
 20
-9.4
 11
-4.14999E+001
 21
-6.56E+001
  0
LINE
  8
104
  6
CONTINUOUS
 62
40
 10
-4.14999E+001
 20
-6.56E+001
 11
-4.09999E+001
 21
-6.56E+001
  0
LINE
  8
104
  6
CONTINUOUS
 62
40
 10
-4.09999E+001
 20
-6.56E+001
 11
-4.09999E+001
 21
-9.4
  0
LINE
  8
MED-0
  6
CENTERLINE
 62
150
 10
7.0
 20
-1.75E+001
 11
0.0
 21
-1.75E+001
  0
LINE
  8
MED-0
  6
CENTERLINE
 62
150
 10
0.0
 20
-1.75E+001
 11
0.0
 21
-1.25E+001
  0
LINE
  8
MED-0
  6
CENTERLINE
 62
150
 10
0.0
 20
-1.25E+001
 11
7.0
 21
-1.25E+001
  0
LINE
  8
MED-0
  6
CENTERLINE
 62
150
 10
7.0
 20
-1.25E+001
 11
7.0
 21
-1.75E+001
  0
LINE
  8
99
  6
CONTINUOUS
 62
1
 10
0.0
 20
-1.675E+001
 11
7.0
 21
-1.675E+001
  0
LINE
  8
99
  6
CONTINUOUS
 62
1
 10
0.0
 20
-1.325E+001
 11
7.0
 21
-1.325E+001
  0
LINE
  8
106
  6
CENTERLINE
 62
1
 10
-1.684
 20
-1.5E+001
 11
9.851
 21
-1.5E+001
  0
LINE
  8
104
  6
CONTINUOUS
 62
40
 10
7.0
 20
-1.75E+001
 11
0.0
 21
-1.75E+001
  0
LINE
  8
104
  6
CONTINUOUS
 62
40
 10
0.0
 20
-1.75E+001
 11
0.0
 21
-1.25E+001
  0
LINE
  8
104
  6
CONTINUOUS
 62
40
 10
0.0
 20
-1.25E+001
 11
7.0
 21
-1.25E+001
  0
LINE
  8
104
  6
CONTINUOUS
 62
40
 10
7.0
 20
-1.25E+001
 11
7.0
 21
-1.75E+001
  0
LINE
  8
MED-0
  6
CENTERLINE
 62
150
 10
7.0
 20
-6.25E+001
 11
0.0
 21
-6.25E+001
  0
LINE
  8
MED-0
  6
CENTERLINE
 62
150
 10
0.0
 20
-6.25E+001
 11
0.0
 21
-5.75E+001
  0
LINE
  8
MED-0
  6
CENTERLINE
 62
150
 10
0.0
 20
-5.75E+001
 11
7.0
 21
-5.75E+001
  0
LINE
  8
MED-0
  6
CENTERLINE
 62
150
 10
7.0
 20
-5.75E+001
 11
7.0
 21
-6.25E+001
  0
LINE
  8
99
  6
CONTINUOUS
 62
1
 10
0.0
 20
-6.175E+001
 11
7.0
 21
-6.175E+001
  0
LINE
  8
99
  6
CONTINUOUS
 62
1
 10
0.0
 20
-5.825E+001
 11
7.0
 21
-5.825E+001
  0
LINE
  8
106
  6
CENTERLINE
 62
1
 10
-1.684
 20
-6.0E+001
 11
9.851
 21
-6.0E+001
  0
LINE
  8
104
  6
CONTINUOUS
 62
40
 10
7.0
 20
-6.25E+001
 11
0.0
 21
-6.25E+001
  0
LINE
  8
104
  6
CONTINUOUS
 62
40
 10
0.0
 20
-6.25E+001
 11
0.0
 21
-5.75E+001
  0
LINE
  8
104
  6
CONTINUOUS
 62
40
 10
0.0
 20
-5.75E+001
 11
7.0
 21
-5.75E+001
  0
LINE
  8
104
  6
CONTINUOUS
 62
40
 10
7.0
 20
-5.75E+001
 11
7.0
 21
-6.25E+001
  0
LINE
  8
MED-1
  6
CONTINUOUS
 62
40
 10
-2.2391884E+001
 20
7.0
 11
-9.4999042
 21
7.0
  0
LINE
  8
MED-1
  6
CONTINUOUS
 62
40
 10
-2.3787794E+001
 20
6.99998
 11
-2.2391884E+001
 21
7.0
  0
LINE
  8
MED-1
  6
CONTINUOUS
 62
40
 10
-5.7393861E+001
 20
6.9999855
 11
-2.3787794E+001
 21
6.99998
  0
LINE
  8
MED-1
  6
CONTINUOUS
 62
40
 10
-2.3787774E+001
 20
1.3E+001
 11
-2.3787794E+001
 21
6.99998
  0
LINE
  8
MED-1
  6
CONTINUOUS
 62
40
 10
-2.3787774E+001
 20
1.3E+001
 11
-5.7393859E+001
 21
1.3E+001
  0
LINE
  8
MED-1
  6
CONTINUOUS
 62
40
 10
-3.1499903E+001
 20
-7.5
 11
-3.1499914E+001
 21
6.99998
  0
LINE
  8
MED-1
  6
CONTINUOUS
 62
40
 10
-9.4999042
 20
1.3E+001
 11
-9.4999042
 21
-7.5
  0
LINE
  8
MED-1
  6
CONTINUOUS
 62
40
 10
-9.5073642
 20
1.3E+001
 11
-2.3787774E+001
 21
1.3E+001
  0
POLYLINE
  8
106
  6
CENTERLINE
 62
1
 66
1
 40
0.0
 41
0.0
 70
2
  0
VERTEX
  8
106
 42
0.0
 10
-5.7393859E+001
 20
1.3E+001
 70
0
  0
VERTEX
  8
106
 42
9.2324079E-003
 10
-5.7552973E+001
 20
1.2773192E+001
 70
1
  0
VERTEX
  8
106
 42
8.8411803E-003
 10
-5.7699722E+001
 20
1.2547298E+001
 70
0
  0
VERTEX
  8
106
 42
1.0296252E-002
 10
-5.783401E+001
 20
1.2322353E+001
 70
1
  0
VERTEX
  8
106
 42
1.4267972E-002
 10
-5.7953502E+001
 20
1.2098332E+001
 70
0
  0
VERTEX
  8
106
 42
1.8048001E-002
 10
-5.8054066E+001
 20
1.1875293E+001
 70
1
  0
VERTEX
  8
106
 42
2.2083838E-002
 10
-5.8133801E+001
 20
1.1653209E+001
 70
0
  0
VERTEX
  8
106
 42
2.6064686E-002
 10
-5.8189285E+001
 20
1.1432132E+001
 70
1
  0
VERTEX
  8
106
 42
3.0114061E-002
 10
-5.8219221E+001
 20
1.1212032E+001
 70
0
  0
VERTEX
  8
106
 42
3.4583056E-002
 10
-5.8219888E+001
 20
1.0992962E+001
 70
1
  0
VERTEX
  8
106
 42
3.9550655E-002
 10
-5.8188366E+001
 20
1.0774905E+001
 70
0
  0
VERTEX
  8
106
 42
3.6229736E-002
 10
-5.8120403E+001
 20
1.0557921E+001
 70
1
  0
VERTEX
  8
106
 42
2.6791222E-002
 10
-5.802206E+001
 20
1.0341924E+001
 70
0
  0
VERTEX
  8
106
 42
1.3968395E-002
 10
-5.7900637E+001
 20
1.0126909E+001
 70
1
  0
VERTEX
  8
106
 42
-4.2625463E-003
 10
-5.7774372E+001
 20
9.9128236
 70
0
  0
VERTEX
  8
106
 42
-2.2308062E-002
 10
-5.7663388E+001
 20
9.6996291
 70
1
  0
VERTEX
  8
106
 42
-4.8714177E-002
 10
-5.7587532E+001
 20
9.4869071
 70
0
  0
VERTEX
  8
106
 42
-6.8097367E-002
 10
-5.7567103E+001
 20
9.274495
 70
1
  0
VERTEX
  8
106
 42
-7.2067293E-002
 10
-5.7606241E+001
 20
9.0634664
 70
0
  0
VERTEX
  8
106
 42
-4.4895101E-002
 10
-5.7704572E+001
 20
8.8542473
 70
1
  0
VERTEX
  8
106
 42
-5.698894E-004
 10
-5.7827267E+001
 20
8.6425173
 70
0
  0
VERTEX
  8
106
 42
1.6372564E-002
 10
-5.7939477E+001
 20
8.4269477
 70
1
  0
VERTEX
  8
106
 42
1.8487067E-002
 10
-5.8027971E+001
 20
8.2251494
 70
0
  0
VERTEX
  8
106
 42
8.9583672E-002
 10
-5.8072235E+001
 20
8.0433145
 70
1
  0
VERTEX
  8
106
 42
1.243969E-001
 10
-5.80112E+001
 20
7.8123275
 70
0
  0
VERTEX
  8
106
 42
4.4765343E-002
 10
-5.7780095E+001
 20
7.4597643
 70
1
  0
VERTEX
  8
106
 42
2.1079969E-002
 10
-5.7393861E+001
 20
6.9999855
 70
0
  0
SEQEND
  0
LINE
  8
104
  6
CONTINUOUS
 62
40
 10
-1.684
 20
2.3E+001
 11
9.851
 21
2.3E+001
  0
LINE
  8
MED-1
  6
CONTINUOUS
 62
40
 10
-2.0
 20
3.1E+001
 11
-5.23621
 21
3.1E+001
  0
LINE
  8
MED-1
  6
CONTINUOUS
 62
40
 10
-5.23621
 20
3.1E+001
 11
-6.44927
 21
3.1E+001
  0
LINE
  8
MED-1
  6
CONTINUOUS
 62
40
 10
-6.44927
 20
3.1E+001
 11
-1.806535E+001
 21
3.1E+001
  0
LINE
  8
MED-1
  6
CONTINUOUS
 62
40
 10
-1.806535E+001
 20
3.1E+001
 11
-1.95E+001
 21
3.1E+001
  0
LINE
  8
MED-1
  6
CONTINUOUS
 62
40
 10
-1.95E+001
 20
1.5E+001
 11
-1.806535E+001
 21
1.5E+001
  0
LINE
  8
MED-1
  6
CONTINUOUS
 62
40
 10
-1.806535E+001
 20
1.5E+001
 11
-6.44927
 21
1.5E+001
  0
LINE
  8
MED-1
  6
CONTINUOUS
 62
40
 10
-6.44927
 20
1.5E+001
 11
-5.23621
 21
1.5E+001
  0
LINE
  8
MED-1
  6
CONTINUOUS
 62
40
 10
-2.0
 20
1.5E+001
 11
-5.23621
 21
1.5E+001
  0
LINE
  8
MED-1
  6
CONTINUOUS
 62
40
 10
-5.23621
 20
1.7E+001
 11
-2.0
 21
1.7E+001
  0
LINE
  8
MED-1
  6
CONTINUOUS
 62
40
 10
-5.23621
 20
1.7E+001
 11
-6.44927
 21
1.7E+001
  0
LINE
  8
MED-1
  6
CONTINUOUS
 62
40
 10
-6.44927
 20
1.7E+001
 11
-1.806535E+001
 21
1.7E+001
  0
LINE
  8
MED-1
  6
CONTINUOUS
 62
40
 10
-1.806535E+001
 20
1.7E+001
 11
-1.95E+001
 21
1.7E+001
  0
LINE
  8
MED-1
  6
CONTINUOUS
 62
40
 10
-1.95E+001
 20
2.9E+001
 11
-1.806535E+001
 21
2.9E+001
  0
LINE
  8
MED-1
  6
CONTINUOUS
 62
40
 10
-1.806535E+001
 20
2.9E+001
 11
-6.44927
 21
2.9E+001
  0
LINE
  8
MED-1
  6
CONTINUOUS
 62
40
 10
-6.44927
 20
2.9E+001
 11
-5.23621
 21
2.9E+001
  0
LINE
  8
MED-1
  6
CONTINUOUS
 62
40
 10
-2.0
 20
2.9E+001
 11
-5.23621
 21
2.9E+001
  0
ARC
  8
MED-1
  6
CONTINUOUS
 62
40
 10
-2.0
 20
2.9E+001
 40
2.0000001
 50
0.0
 51
9.0E+001
  0
ARC
  8
MED-1
  6
CONTINUOUS
 62
40
 10
-2.0
 20
1.7E+001
 40
1.9999999
 50
2.7E+002
 51
3.6E+002
  0
LINE
  8
MED-1
  6
CONTINUOUS
 62
40
 10
-2.0
 20
1.7E+001
 11
-2.0
 21
2.9E+001
  0
LINE
  8
MED-1
  6
CONTINUOUS
 62
40
 10
0.0
 20
2.9E+001
 11
0.0
 21
1.7E+001
  0
LINE
  8
MED-1
  6
CONTINUOUS
 62
40
 10
-1.95E+001
 20
2.9E+001
 11
-1.95E+001
 21
3.1E+001
  0
LINE
  8
MED-1
  6
CONTINUOUS
 62
40
 10
-1.95E+001
 20
1.5E+001
 11
-1.95E+001
 21
1.7E+001
  0
CIRCLE
  8
MED-1
  6
CONTINUOUS
 62
40
 10
-2.9E+001
 20
2.3E+001
 40
3.5
  0
ARC
  8
MED-1
  6
CONTINUOUS
 62
40
 10
-1.2E+001
 20
2.641667E+001
 40
6.0833332
 50
4.888791E+001
 51
9.0E+001
  0
ARC
  8
MED-1
  6
CONTINUOUS
 62
40
 10
-1.2E+001
 20
2.641667E+001
 40
6.0833333
 50
9.0E+001
 51
1.3111209E+002
  0
LINE
  8
MED-1
  6
CONTINUOUS
 62
40
 10
-7.0
 20
1.725E+001
 11
-1.7E+001
 21
1.725E+001
  0
LINE
  8
MED-1
  6
CONTINUOUS
 62
40
 10
-1.7E+001
 20
2.875E+001
 11
-7.0
 21
2.875E+001
  0
LINE
  8
MED-1
  6
CONTINUOUS
 62
40
 10
-7.0
 20
2.875E+001
 11
-6.99999
 21
2.850001E+001
  0
LINE
  8
MED-1
  6
CONTINUOUS
 62
40
 10
-6.99999
 20
1.749998E+001
 11
-7.0
 21
1.725E+001
  0
LINE
  8
MED-1
  6
CONTINUOUS
 62
40
 10
-1.7E+001
 20
1.725E+001
 11
-1.699999E+001
 21
1.749998E+001
  0
LINE
  8
MED-1
  6
CONTINUOUS
 62
40
 10
-1.699999E+001
 20
2.850001E+001
 11
-1.7E+001
 21
2.875E+001
  0
ARC
  8
MED-1
  6
CONTINUOUS
 62
40
 10
-2.9E+001
 20
2.3E+001
 40
5.5
 50
9.0E+001
 51
1.8E+002
  0
ARC
  8
MED-1
  6
CONTINUOUS
 62
40
 10
-2.9E+001
 20
2.3E+001
 40
5.5
 50
1.8E+002
 51
2.7E+002
  0
LINE
  8
MED-1
  6
CONTINUOUS
 62
40
 10
-1.720481E+001
 20
2.85E+001
 11
-4.5
 21
2.85E+001
  0
LINE
  8
MED-1
  6
CONTINUOUS
 62
40
 10
-1.720481E+001
 20
2.85E+001
 11
-1.893975E+001
 21
2.85E+001
  0
LINE
  8
MED-1
  6
CONTINUOUS
 62
40
 10
-1.893975E+001
 20
2.85E+001
 11
-2.9E+001
 21
2.85E+001
  0
LINE
  8
MED-1
  6
CONTINUOUS
 62
40
 10
-2.9E+001
 20
1.75E+001
 11
-1.893975E+001
 21
1.75E+001
  0
LINE
  8
MED-1
  6
CONTINUOUS
 62
40
 10
-1.893975E+001
 20
1.75E+001
 11
-1.720481E+001
 21
1.75E+001
  0
LINE
  8
MED-1
  6
CONTINUOUS
 62
40
 10
-4.5
 20
1.75E+001
 11
-1.720481E+001
 21
1.75E+001
  0
LINE
  8
MED-1
  6
CONTINUOUS
 62
40
 10
-1.720481E+001
 20
1.75E+001
 11
-1.720481E+001
 21
2.85E+001
  0
LINE
  8
MED-1
  6
CONTINUOUS
 62
40
 10
-4.5
 20
2.85E+001
 11
-4.49999
 21
2.725001E+001
  0
LINE
  8
MED-1
  6
CONTINUOUS
 62
40
 10
-4.5
 20
1.875E+001
 11
-4.5
 21
1.75E+001
  0
LINE
  8
MED-1
  6
CONTINUOUS
 62
40
 10
-3.95E+001
 20
2.022236E+001
 11
-3.949975E+001
 21
1.946704E+001
  0
LINE
  8
MED-1
  6
CONTINUOUS
 62
40
 10
-3.95E+001
 20
2.022236E+001
 11
-3.95E+001
 21
2.023821E+001
  0
LINE
  8
MED-1
  6
CONTINUOUS
 62
40
 10
-3.95E+001
 20
2.57618E+001
 11
-3.95E+001
 21
2.023821E+001
  0
LINE
  8
MED-1
  6
CONTINUOUS
 62
40
 10
-3.95E+001
 20
2.650026E+001
 11
-3.95E+001
 21
2.582649E+001
  0
LINE
  8
MED-1
  6
CONTINUOUS
 62
40
 10
-3.95E+001
 20
2.57618E+001
 11
-3.95E+001
 21
2.582649E+001
  0
LINE
  8
MED-1
  6
CONTINUOUS
 62
40
 10
-3.95E+001
 20
2.66753E+001
 11
-3.95E+001
 21
2.650026E+001
  0
LINE
  8
MED-1
  6
CONTINUOUS
 62
40
 10
-3.630001E+001
 20
1.824997E+001
 11
-3.630001E+001
 21
1.898822E+001
  0
LINE
  8
MED-1
  6
CONTINUOUS
 62
40
 10
-3.177264E+001
 20
1.825E+001
 11
-3.205563E+001
 21
1.825E+001
  0
LINE
  8
MED-1
  6
CONTINUOUS
 62
40
 10
-3.205563E+001
 20
1.825E+001
 11
-3.233856E+001
 21
1.825E+001
  0
LINE
  8
MED-1
  6
CONTINUOUS
 62
40
 10
-3.233856E+001
 20
1.825E+001
 11
-3.262138E+001
 21
1.825E+001
  0
LINE
  8
MED-1
  6
CONTINUOUS
 62
40
 10
-3.262138E+001
 20
1.825E+001
 11
-3.290448E+001
 21
1.825E+001
  0
LINE
  8
MED-1
  6
CONTINUOUS
 62
40
 10
-3.290448E+001
 20
1.825E+001
 11
-3.318801E+001
 21
1.825E+001
  0
LINE
  8
MED-1
  6
CONTINUOUS
 62
40
 10
-3.318801E+001
 20
1.825E+001
 11
-3.34704E+001
 21
1.825E+001
  0
LINE
  8
MED-1
  6
CONTINUOUS
 62
40
 10
-3.34704E+001
 20
1.825E+001
 11
-3.37511E+001
 21
1.825E+001
  0
LINE
  8
MED-1
  6
CONTINUOUS
 62
40
 10
-3.37511E+001
 20
1.825E+001
 11
-3.403632E+001
 21
1.825E+001
  0
LINE
  8
MED-1
  6
CONTINUOUS
 62
40
 10
-3.403632E+001
 20
1.825E+001
 11
-3.432821E+001
 21
1.825E+001
  0
LINE
  8
MED-1
  6
CONTINUOUS
 62
40
 10
-3.432821E+001
 20
1.825E+001
 11
-3.460224E+001
 21
1.824999E+001
  0
LINE
  8
MED-1
  6
CONTINUOUS
 62
40
 10
-3.460224E+001
 20
1.824999E+001
 11
-3.484999E+001
 21
1.824999E+001
  0
LINE
  8
MED-1
  6
CONTINUOUS
 62
40
 10
-3.484999E+001
 20
1.824999E+001
 11
-3.516817E+001
 21
1.824999E+001
  0
LINE
  8
MED-1
  6
CONTINUOUS
 62
40
 10
-3.516817E+001
 20
1.824999E+001
 11
-3.565823E+001
 21
1.824998E+001
  0
LINE
  8
MED-1
  6
CONTINUOUS
 62
40
 10
-3.565823E+001
 20
1.824998E+001
 11
-3.630001E+001
 21
1.824997E+001
  0
LINE
  8
MED-1
  6
CONTINUOUS
 62
40
 10
-3.276239E+001
 20
1.898821E+001
 11
-3.630001E+001
 21
1.898822E+001
  0
LINE
  8
MED-1
  6
CONTINUOUS
 62
40
 10
-3.937653E+001
 20
1.938092E+001
 11
-3.93726E+001
 21
1.938556E+001
  0
ARC
  8
MED-1
  6
CONTINUOUS
 62
40
 10
-2.8385165E+001
 20
1.0051235E+001
 40
1.441712E+001
 50
1.3958391E+002
 51
1.3965059E+002
  0
LINE
  8
MED-1
  6
CONTINUOUS
 62
40
 10
-3.936173E+001
 20
1.939834E+001
 11
-3.934383E+001
 21
1.94194E+001
  0
LINE
  8
MED-1
  6
CONTINUOUS
 62
40
 10
-3.934383E+001
 20
1.94194E+001
 11
-3.931791E+001
 21
1.94499E+001
  0
LINE
  8
MED-1
  6
CONTINUOUS
 62
40
 10
-3.931791E+001
 20
1.94499E+001
 11
-3.92834E+001
 21
1.949049E+001
  0
LINE
  8
MED-1
  6
CONTINUOUS
 62
40
 10
-3.92834E+001
 20
1.949049E+001
 11
-3.924672E+001
 21
1.953364E+001
  0
LINE
  8
MED-1
  6
CONTINUOUS
 62
40
 10
-3.924672E+001
 20
1.953364E+001
 11
-3.920995E+001
 21
1.95769E+001
  0
LINE
  8
MED-1
  6
CONTINUOUS
 62
40
 10
-3.920995E+001
 20
1.95769E+001
 11
-3.915079E+001
 21
1.96465E+001
  0
LINE
  8
MED-1
  6
CONTINUOUS
 62
40
 10
-3.915079E+001
 20
1.96465E+001
 11
-3.904528E+001
 21
1.977062E+001
  0
LINE
  8
MED-1
  6
CONTINUOUS
 62
40
 10
-3.904528E+001
 20
1.977062E+001
 11
-3.889837E+001
 21
1.994343E+001
  0
LINE
  8
MED-1
  6
CONTINUOUS
 62
40
 10
-3.630001E+001
 20
1.824997E+001
 11
-3.647295E+001
 21
1.825306E+001
  0
ARC
  8
MED-1
  6
CONTINUOUS
 62
40
 10
-3.6297491E+001
 20
2.3292887E+001
 40
5.0428806
 50
2.6606087E+002
 51
2.6800608E+002
  0
ARC
  8
MED-1
  6
CONTINUOUS
 62
40
 10
-3.6301575E+001
 20
2.3120683E+001
 40
4.8708089
 50
2.6397496E+002
 51
2.6596964E+002
  0
ARC
  8
MED-1
  6
CONTINUOUS
 62
40
 10
-3.6313787E+001
 20
2.3013242E+001
 40
4.7626796
 50
2.6196142E+002
 51
2.639854E+002
  0
ARC
  8
MED-1
  6
CONTINUOUS
 62
40
 10
-3.6314903E+001
 20
2.2975249E+001
 40
4.7249057
 50
2.5988441E+002
 51
2.6191039E+002
  0
ARC
  8
MED-1
  6
CONTINUOUS
 62
40
 10
-3.6322487E+001
 20
2.2951077E+001
 40
4.6997785
 50
2.5789897E+002
 51
2.5992367E+002
  0
ARC
  8
MED-1
  6
CONTINUOUS
 62
40
 10
-3.6317237E+001
 20
2.2954942E+001
 40
4.7046604
 50
2.5583385E+002
 51
2.5784633E+002
  0
ARC
  8
MED-1
  6
CONTINUOUS
 62
40
 10
-3.6329182E+001
 20
2.2911913E+001
 40
4.6600159
 50
2.5381979E+002
 51
2.5584678E+002
  0
ARC
  8
MED-1
  6
CONTINUOUS
 62
40
 10
-3.6344775E+001
 20
2.2843603E+001
 40
4.5900692
 50
2.5171292E+002
 51
2.5376911E+002
  0
ARC
  8
MED-1
  6
CONTINUOUS
 62
40
 10
-3.6311492E+001
 20
2.2983475E+001
 40
4.7333367
 50
2.4987768E+002
 51
2.5186164E+002
  0
ARC
  8
MED-1
  6
CONTINUOUS
 62
40
 10
-3.6181201E+001
 20
2.33347E+001
 40
5.1079465
 50
2.480334E+002
 51
2.4986077E+002
  0
ARC
  8
MED-1
  6
CONTINUOUS
 62
40
 10
-3.6315887E+001
 20
2.2934926E+001
 40
4.6868783
 50
2.4570623E+002
 51
2.4773225E+002
  0
ARC
  8
MED-1
  6
CONTINUOUS
 62
40
 10
-3.6606349E+001
 20
2.2273988E+001
 40
3.9649732
 50
2.4314489E+002
 51
2.456025E+002
  0
ARC
  8
MED-1
  6
CONTINUOUS
 62
40
 10
-3.624115E+001
 20
2.3179089E+001
 40
4.9381325
 50
2.4225205E+002
 51
2.4410858E+002
  0
ARC
  8
MED-1
  6
CONTINUOUS
 62
40
 10
-3.2065266E+001
 20
3.1177506E+001
 40
1.3961015E+001
 50
2.4177296E+002
 51
2.4236799E+002
  0
ARC
  8
MED-1
  6
CONTINUOUS
 62
40
 10
-3.660438E+001
 20
2.2346754E+001
 40
4.0374599
 50
2.3658323E+002
 51
2.392557E+002
  0
ARC
  8
MED-1
  6
CONTINUOUS
 62
40
 10
-3.6823677E+001
 20
2.2038926E+001
 40
3.6597724
 50
2.3219282E+002
 51
2.3679483E+002
  0
ARC
  8
MED-1
  6
CONTINUOUS
 62
40
 10
-3.3133903E+001
 20
2.7330744E+001
 40
1.0107922E+001
 50
2.3185911E+002
 51
2.3405639E+002
  0
LINE
  8
MED-1
  6
CONTINUOUS
 62
40
 10
-3.630001E+001
 20
1.898822E+001
 11
-3.644607E+001
 21
1.899082E+001
  0
ARC
  8
MED-1
  6
CONTINUOUS
 62
40
 10
-3.6298338E+001
 20
2.3245989E+001
 40
4.2577323
 50
2.6606572E+002
 51
2.6801159E+002
  0
ARC
  8
MED-1
  6
CONTINUOUS
 62
40
 10
-3.6301475E+001
 20
2.3100503E+001
 40
4.1123802
 50
2.6397486E+002
 51
2.6597025E+002
  0
ARC
  8
MED-1
  6
CONTINUOUS
 62
40
 10
-3.631214E+001
 20
2.3009815E+001
 40
4.0210735
 50
2.6196568E+002
 51
2.6399035E+002
  0
ARC
  8
MED-1
  6
CONTINUOUS
 62
40
 10
-3.6312831E+001
 20
2.2977899E+001
 40
3.9893757
 50
2.598849E+002
 51
2.6191145E+002
  0
ARC
  8
MED-1
  6
CONTINUOUS
 62
40
 10
-3.6319063E+001
 20
2.2957974E+001
 40
3.9686668
 50
2.5789778E+002
 51
2.5992295E+002
  0
ARC
  8
MED-1
  6
CONTINUOUS
 62
40
 10
-3.6314832E+001
 20
2.2961074E+001
 40
3.9725872
 50
2.5583462E+002
 51
2.5784749E+002
  0
ARC
  8
MED-1
  6
CONTINUOUS
 62
40
 10
-3.6324723E+001
 20
2.2924947E+001
 40
3.9351377
 50
2.5381821E+002
 51
2.5584552E+002
  0
ARC
  8
MED-1
  6
CONTINUOUS
 62
40
 10
-3.6338085E+001
 20
2.2867673E+001
 40
3.8764107
 50
2.5171554E+002
 51
2.5377197E+002
  0
ARC
  8
MED-1
  6
CONTINUOUS
 62
40
 10
-3.6309584E+001
 20
2.2985627E+001
 40
3.9973634
 50
2.49874E+002
 51
2.5185808E+002
  0
ARC
  8
MED-1
  6
CONTINUOUS
 62
40
 10
-3.6199823E+001
 20
2.3282935E+001
 40
4.3142848
 50
2.4803655E+002
 51
2.4986391E+002
  0
ARC
  8
MED-1
  6
CONTINUOUS
 62
40
 10
-3.6313506E+001
 20
2.294483E+001
 40
3.958255
 50
2.4570611E+002
 51
2.4773223E+002
  0
ARC
  8
MED-1
  6
CONTINUOUS
 62
40
 10
-3.6558987E+001
 20
2.2386264E+001
 40
3.3481617
 50
2.4314436E+002
 51
2.456024E+002
  0
ARC
  8
MED-1
  6
CONTINUOUS
 62
40
 10
-3.6250662E+001
 20
2.3150308E+001
 40
4.1696748
 50
2.4225052E+002
 51
2.4410739E+002
  0
ARC
  8
MED-1
  6
CONTINUOUS
 62
40
 10
-3.2721591E+001
 20
2.9910087E+001
 40
1.1795207E+001
 50
2.4177318E+002
 51
2.4236806E+002
  0
ARC
  8
MED-1
  6
CONTINUOUS
 62
40
 10
-3.6557684E+001
 20
2.244713E+001
 40
3.4086908
 50
2.3658113E+002
 51
2.3925458E+002
  0
ARC
  8
MED-1
  6
CONTINUOUS
 62
40
 10
-3.6742858E+001
 20
2.2186921E+001
 40
3.0895375
 50
2.3218539E+002
 51
2.367897E+002
  0
ARC
  8
MED-1
  6
CONTINUOUS
 62
40
 10
-3.3627746E+001
 20
2.6653901E+001
 40
8.532872
 50
2.3185275E+002
 51
2.3405113E+002
  0
LINE
  8
MED-1
  6
CONTINUOUS
 62
40
 10
-3.937653E+001
 20
1.938092E+001
 11
-3.938783E+001
 21
1.939044E+001
  0
ARC
  8
MED-1
  6
CONTINUOUS
 62
40
 10
-4.0371214E+001
 20
1.8211041E+001
 40
1.5355867
 50
5.0178631E+001
 51
5.0696498E+001
  0
ARC
  8
MED-1
  6
CONTINUOUS
 62
40
 10
-4.0188881E+001
 20
1.8429918E+001
 40
1.2507263
 50
5.0808572E+001
 51
5.140246E+001
  0
ARC
  8
MED-1
  6
CONTINUOUS
 62
40
 10
-4.0052596E+001
 20
1.8598946E+001
 40
1.0336027
 50
5.1461535E+001
 51
5.2133791E+001
  0
ARC
  8
MED-1
  6
CONTINUOUS
 62
40
 10
-3.9963443E+001
 20
1.8712737E+001
 40
8.8904782E-001
 50
5.2168206E+001
 51
5.2898169E+001
  0
ARC
  8
MED-1
  6
CONTINUOUS
 62
40
 10
-3.9895248E+001
 20
1.8801573E+001
 40
7.7705764E-001
 50
5.2957234E+001
 51
5.3736617E+001
  0
ARC
  8
MED-1
  6
CONTINUOUS
 62
40
 10
-3.9849207E+001
 20
1.8862258E+001
 40
7.008952E-001
 50
5.3837084E+001
 51
5.4639992E+001
  0
ARC
  8
MED-1
  6
CONTINUOUS
 62
40
 10
-3.9769768E+001
 20
1.8972148E+001
 40
5.6530546E-001
 50
5.4760529E+001
 51
5.5700719E+001
  0
ARC
  8
MED-1
  6
CONTINUOUS
 62
40
 10
-3.9693815E+001
 20
1.9081203E+001
 40
4.3241601E-001
 50
5.5871809E+001
 51
5.7037154E+001
  0
ARC
  8
MED-1
  6
CONTINUOUS
 62
40
 10
-3.9700372E+001
 20
1.9075801E+001
 40
4.405232E-001
 50
5.6703906E+001
 51
5.7729603E+001
  0
ARC
  8
MED-1
  6
CONTINUOUS
 62
40
 10
-3.9863959E+001
 20
1.8817963E+001
 40
7.4587689E-001
 50
5.7679239E+001
 51
5.8203133E+001
  0
ARC
  8
MED-1
  6
CONTINUOUS
 62
40
 10
-3.9628724E+001
 20
1.9184377E+001
 40
3.1058211E-001
 50
5.9469723E+001
 51
6.0913372E+001
  0
ARC
  8
MED-1
  6
CONTINUOUS
 62
40
 10
-3.959502E+001
 20
1.924387E+001
 40
2.4220825E-001
 50
6.1039162E+001
 51
6.3638087E+001
  0
ARC
  8
MED-1
  6
CONTINUOUS
 62
40
 10
-3.9728574E+001
 20
1.8994802E+001
 40
5.2475653E-001
 50
6.2647841E+001
 51
6.4147429E+001
  0
LINE
  8
MED-1
  6
CONTINUOUS
 62
40
 10
-3.889837E+001
 20
1.994343E+001
 11
-3.892528E+001
 21
1.996566E+001
  0
ARC
  8
MED-1
  6
CONTINUOUS
 62
40
 10
-3.9750718E+001
 20
1.8939806E+001
 40
1.3167097
 50
5.1178618E+001
 51
5.2685371E+001
  0
ARC
  8
MED-1
  6
CONTINUOUS
 62
40
 10
-3.9727716E+001
 20
1.89674E+001
 40
1.2808214
 50
5.2755471E+001
 51
5.4292063E+001
  0
ARC
  8
MED-1
  6
CONTINUOUS
 62
40
 10
-3.971418E+001
 20
1.8987058E+001
 40
1.2569586
 50
5.4270085E+001
 51
5.5825653E+001
  0
ARC
  8
MED-1
  6
CONTINUOUS
 62
40
 10
-3.9707109E+001
 20
1.8995486E+001
 40
1.2460141
 50
5.5876972E+001
 51
5.7436414E+001
  0
ARC
  8
MED-1
  6
CONTINUOUS
 62
40
 10
-3.970309E+001
 20
1.9002815E+001
 40
1.2376739
 50
5.7410602E+001
 51
5.897135E+001
  0
ARC
  8
MED-1
  6
CONTINUOUS
 62
40
 10
-3.9701541E+001
 20
1.9003706E+001
 40
1.236113
 50
5.9011565E+001
 51
6.0566537E+001
  0
ARC
  8
MED-1
  6
CONTINUOUS
 62
40
 10
-3.9693561E+001
 20
1.9017575E+001
 40
1.2201121
 50
6.0572852E+001
 51
6.214333E+001
  0
ARC
  8
MED-1
  6
CONTINUOUS
 62
40
 10
-3.9681578E+001
 20
1.9038497E+001
 40
1.1960163
 50
6.2182556E+001
 51
6.3781316E+001
  0
ARC
  8
MED-1
  6
CONTINUOUS
 62
40
 10
-3.9695982E+001
 20
1.901456E+001
 40
1.2238562
 50
6.3671434E+001
 51
6.5223549E+001
  0
ARC
  8
MED-1
  6
CONTINUOUS
 62
40
 10
-3.9729645E+001
 20
1.8940485E+001
 40
1.30522
 50
6.5244604E+001
 51
6.6688969E+001
  0
ARC
  8
MED-1
  6
CONTINUOUS
 62
40
 10
-3.9686622E+001
 20
1.902948E+001
 40
1.2064724
 50
6.6892865E+001
 51
6.8477617E+001
  0
ARC
  8
MED-1
  6
CONTINUOUS
 62
40
 10
-3.9625285E+001
 20
1.9182182E+001
 40
1.0419151
 50
6.8534757E+001
 51
7.0412085E+001
  0
ARC
  8
MED-1
  6
CONTINUOUS
 62
40
 10
-3.9726645E+001
 20
1.8947074E+001
 40
1.297506
 50
6.9675794E+001
 51
7.1091114E+001
  0
ARC
  8
MED-1
  6
CONTINUOUS
 62
40
 10
-4.047828E+001
 20
1.6767453E+001
 40
3.6030852
 50
7.1015803E+001
 51
7.1476784E+001
  0
ARC
  8
MED-1
  6
CONTINUOUS
 62
40
 10
-3.9637501E+001
 20
1.916672E+001
 40
1.0615833
 50
7.3366259E+001
 51
7.5380008E+001
  0
ARC
  8
MED-1
  6
CONTINUOUS
 62
40
 10
-3.9609144E+001
 20
1.928343E+001
 40
9.4149625E-001
 50
7.5257102E+001
 51
7.8770034E+001
  0
ARC
  8
MED-1
  6
CONTINUOUS
 62
40
 10
-3.9982033E+001
 20
1.7725251E+001
 40
2.5432237
 50
7.7366389E+001
 51
7.9073593E+001
  0
LINE
  8
MED-1
  6
CONTINUOUS
 62
40
 10
-3.949997E+001
 20
1.949997E+001
 11
-5.8325081E+001
 21
1.949997E+001
  0
LINE
  8
MED-1
  6
CONTINUOUS
 62
40
 10
-5.9171194E+001
 20
2.6499957E+001
 11
-3.95E+001
 21
2.650026E+001
  0
LINE
  8
MED-1
  6
CONTINUOUS
 62
40
 10
-3.949997E+001
 20
2.582647E+001
 11
-3.948022E+001
 21
2.583333E+001
  0
ARC
  8
MED-1
  6
CONTINUOUS
 62
40
 10
-3.9903388E+001
 20
2.7019663E+001
 40
1.2595459
 50
2.8963145E+002
 51
2.9058286E+002
  0
ARC
  8
MED-1
  6
CONTINUOUS
 62
40
 10
-3.9909348E+001
 20
2.7033549E+001
 40
1.2746414
 50
2.9061423E+002
 51
2.9155512E+002
  0
ARC
  8
MED-1
  6
CONTINUOUS
 62
40
 10
-3.9905194E+001
 20
2.7024235E+001
 40
1.2644526
 50
2.9153509E+002
 51
2.9248424E+002
  0
ARC
  8
MED-1
  6
CONTINUOUS
 62
40
 10
-3.9891854E+001
 20
2.698946E+001
 40
1.22722
 50
2.9252969E+002
 51
2.9350872E+002
  0
ARC
  8
MED-1
  6
CONTINUOUS
 62
40
 10
-3.9887867E+001
 20
2.6980377E+001
 40
1.2173006
 50
2.9350717E+002
 51
2.9449539E+002
  0
ARC
  8
MED-1
  6
CONTINUOUS
 62
40
 10
-3.9892536E+001
 20
2.698969E+001
 40
1.2277111
 50
2.9451348E+002
 51
2.9549395E+002
  0
ARC
  8
MED-1
  6
CONTINUOUS
 62
40
 10
-3.9889207E+001
 20
2.6981887E+001
 40
1.2192352
 50
2.9551056E+002
 51
2.965009E+002
  0
ARC
  8
MED-1
  6
CONTINUOUS
 62
40
 10
-3.9877647E+001
 20
2.6957932E+001
 40
1.1926387
 50
2.9651741E+002
 51
2.9753347E+002
  0
ARC
  8
MED-1
  6
CONTINUOUS
 62
40
 10
-3.9890838E+001
 20
2.6986329E+001
 40
1.223919
 50
2.9746652E+002
 51
2.9845499E+002
  0
ARC
  8
MED-1
  6
CONTINUOUS
 62
40
 10
-3.9930594E+001
 20
2.7058514E+001
 40
1.3063256
 50
2.984795E+002
 51
2.9940221E+002
  0
ARC
  8
MED-1
  6
CONTINUOUS
 62
40
 10
-3.9881987E+001
 20
2.6966142E+001
 40
1.2019925
 50
2.9954533E+002
 51
3.005675E+002
  0
ARC
  8
MED-1
  6
CONTINUOUS
 62
40
 10
-3.9795855E+001
 20
2.6818792E+001
 40
1.0313174
 50
3.0061046E+002
 51
3.0183443E+002
  0
ARC
  8
MED-1
  6
CONTINUOUS
 62
40
 10
-3.9921851E+001
 20
2.704171E+001
 40
1.2872044
 50
3.0136535E+002
 51
3.0228792E+002
  0
ARC
  8
MED-1
  6
CONTINUOUS
 62
40
 10
-4.1115315E+001
 20
2.8937703E+001
 40
3.5275486
 50
3.0222512E+002
 51
3.0252995E+002
  0
ARC
  8
MED-1
  6
CONTINUOUS
 62
40
 10
-3.9808446E+001
 20
2.6847172E+001
 40
1.0624782
 50
3.037341E+002
 51
3.0504502E+002
  0
ARC
  8
MED-1
  6
CONTINUOUS
 62
40
 10
-3.9749358E+001
 20
2.6765436E+001
 40
9.6163213E-001
 50
3.0495919E+002
 51
3.0720721E+002
  0
ARC
  8
MED-1
  6
CONTINUOUS
 62
40
 10
-4.0720019E+001
 20
2.8112353E+001
 40
2.6216747
 50
3.0630252E+002
 51
3.0738644E+002
  0
LINE
  8
MED-1
  6
CONTINUOUS
 62
40
 10
-3.912817E+001
 20
2.602928E+001
 11
-3.901113E+001
 21
2.611919E+001
  0
ARC
  8
MED-1
  6
CONTINUOUS
 62
40
 10
-3.6314213E+001
 20
2.2489696E+001
 40
4.52179
 50
1.2476158E+002
 51
1.2661441E+002
  0
ARC
  8
MED-1
  6
CONTINUOUS
 62
40
 10
-3.6399416E+001
 20
2.260085E+001
 40
4.3818995
 50
1.2277968E+002
 51
1.2467501E+002
  0
ARC
  8
MED-1
  6
CONTINUOUS
 62
40
 10
-3.6447488E+001
 20
2.2677637E+001
 40
4.2913134
 50
1.2087379E+002
 51
1.2279511E+002
  0
ARC
  8
MED-1
  6
CONTINUOUS
 62
40
 10
-3.646888E+001
 20
2.270557E+001
 40
4.2563626
 50
1.1889484E+002
 51
1.2081958E+002
  0
ARC
  8
MED-1
  6
CONTINUOUS
 62
40
 10
-3.6477238E+001
 20
2.2726249E+001
 40
4.2342209
 50
1.1700678E+002
 51
1.1893104E+002
  0
ARC
  8
MED-1
  6
CONTINUOUS
 62
40
 10
-3.6478651E+001
 20
2.2721207E+001
 40
4.2380728
 50
1.1504523E+002
 51
1.169588E+002
  0
ARC
  8
MED-1
  6
CONTINUOUS
 62
40
 10
-3.6496069E+001
 20
2.2759083E+001
 40
4.196385
 50
1.131201E+002
 51
1.1504871E+002
  0
ARC
  8
MED-1
  6
CONTINUOUS
 62
40
 10
-3.6524944E+001
 20
2.2819345E+001
 40
4.1296255
 50
1.1112132E+002
 51
1.1307995E+002
  0
ARC
  8
MED-1
  6
CONTINUOUS
 62
40
 10
-3.647077E+001
 20
2.2706469E+001
 40
4.254451
 50
1.093624E+002
 51
1.1125412E+002
  0
ARC
  8
MED-1
  6
CONTINUOUS
 62
40
 10
-3.6362625E+001
 20
2.2394864E+001
 40
4.5842867
 50
1.0760138E+002
 51
1.0934639E+002
  0
ARC
  8
MED-1
  6
CONTINUOUS
 62
40
 10
-3.649762E+001
 20
2.27506E+001
 40
4.2044368
 50
1.0537832E+002
 51
1.0731379E+002
  0
ARC
  8
MED-1
  6
CONTINUOUS
 62
40
 10
-3.667529E+001
 20
2.3372473E+001
 40
3.5577185
 50
1.0292874E+002
 51
1.0527537E+002
  0
ARC
  8
MED-1
  6
CONTINUOUS
 62
40
 10
-3.6410827E+001
 20
2.2540806E+001
 40
4.4280525
 50
1.0208281E+002
 51
1.0385629E+002
  0
ARC
  8
MED-1
  6
CONTINUOUS
 62
40
 10
-3.4702433E+001
 20
1.4668314E+001
 40
1.2483768E+001
 50
1.0161676E+002
 51
1.021867E+002
  0
ARC
  8
MED-1
  6
CONTINUOUS
 62
40
 10
-3.663702E+001
 20
2.3325844E+001
 40
3.6171989
 50
9.6661872E+001
 51
9.9214096E+001
  0
ARC
  8
MED-1
  6
CONTINUOUS
 62
40
 10
-3.6665964E+001
 20
2.3670595E+001
 40
3.2714371
 50
9.2458936E+001
 51
9.6858818E+001
  0
ARC
  8
MED-1
  6
CONTINUOUS
 62
40
 10
-3.6140364E+001
 20
1.7953463E+001
 40
9.0102017
 50
9.2133274E+001
 51
9.4238674E+001
  0
LINE
  8
MED-1
  6
CONTINUOUS
 62
40
 10
-3.647576E+001
 20
2.695742E+001
 11
-3.624685E+001
 21
2.695745E+001
  0
LINE
  8
MED-1
  6
CONTINUOUS
 62
40
 10
-3.624685E+001
 20
2.695745E+001
 11
-3.601798E+001
 21
2.695753E+001
  0
LINE
  8
MED-1
  6
CONTINUOUS
 62
40
 10
-3.601798E+001
 20
2.695753E+001
 11
-3.578921E+001
 21
2.695766E+001
  0
LINE
  8
MED-1
  6
CONTINUOUS
 62
40
 10
-3.578921E+001
 20
2.695766E+001
 11
-3.55602E+001
 21
2.695783E+001
  0
LINE
  8
MED-1
  6
CONTINUOUS
 62
40
 10
-3.55602E+001
 20
2.695783E+001
 11
-3.533085E+001
 21
2.695805E+001
  0
LINE
  8
MED-1
  6
CONTINUOUS
 62
40
 10
-3.533085E+001
 20
2.695805E+001
 11
-3.510243E+001
 21
2.695832E+001
  0
LINE
  8
MED-1
  6
CONTINUOUS
 62
40
 10
-3.510243E+001
 20
2.695832E+001
 11
-3.487537E+001
 21
2.695862E+001
  0
LINE
  8
MED-1
  6
CONTINUOUS
 62
40
 10
-3.487537E+001
 20
2.695862E+001
 11
-3.464466E+001
 21
2.695897E+001
  0
LINE
  8
MED-1
  6
CONTINUOUS
 62
40
 10
-3.464466E+001
 20
2.695897E+001
 11
-3.440856E+001
 21
2.695938E+001
  0
LINE
  8
MED-1
  6
CONTINUOUS
 62
40
 10
-3.440856E+001
 20
2.695938E+001
 11
-3.418689E+001
 21
2.695979E+001
  0
LINE
  8
MED-1
  6
CONTINUOUS
 62
40
 10
-3.418689E+001
 20
2.695979E+001
 11
-3.398649E+001
 21
2.696019E+001
  0
LINE
  8
MED-1
  6
CONTINUOUS
 62
40
 10
-3.398649E+001
 20
2.696019E+001
 11
-3.372912E+001
 21
2.696077E+001
  0
LINE
  8
MED-1
  6
CONTINUOUS
 62
40
 10
-3.372912E+001
 20
2.696077E+001
 11
-3.333272E+001
 21
2.696178E+001
  0
LINE
  8
MED-1
  6
CONTINUOUS
 62
40
 10
-3.333272E+001
 20
2.696178E+001
 11
-3.281359E+001
 21
2.696316E+001
  0
LINE
  8
MED-1
  6
CONTINUOUS
 62
40
 10
-3.949997E+001
 20
2.650024E+001
 11
-3.94796E+001
 21
2.647443E+001
  0
LINE
  8
MED-1
  6
CONTINUOUS
 62
40
 10
-3.94796E+001
 20
2.647443E+001
 11
-3.945731E+001
 21
2.644619E+001
  0
LINE
  8
MED-1
  6
CONTINUOUS
 62
40
 10
-3.945731E+001
 20
2.644619E+001
 11
-3.943315E+001
 21
2.641559E+001
  0
LINE
  8
MED-1
  6
CONTINUOUS
 62
40
 10
-3.943315E+001
 20
2.641559E+001
 11
-3.940637E+001
 21
2.638167E+001
  0
LINE
  8
MED-1
  6
CONTINUOUS
 62
40
 10
-3.940637E+001
 20
2.638167E+001
 11
-3.937663E+001
 21
2.6344E+001
  0
LINE
  8
MED-1
  6
CONTINUOUS
 62
40
 10
-3.937663E+001
 20
2.6344E+001
 11
-3.934751E+001
 21
2.630711E+001
  0
LINE
  8
MED-1
  6
CONTINUOUS
 62
40
 10
-3.934751E+001
 20
2.630711E+001
 11
-3.932017E+001
 21
2.627248E+001
  0
LINE
  8
MED-1
  6
CONTINUOUS
 62
40
 10
-3.932017E+001
 20
2.627248E+001
 11
-3.928116E+001
 21
2.622307E+001
  0
LINE
  8
MED-1
  6
CONTINUOUS
 62
40
 10
-3.928116E+001
 20
2.622307E+001
 11
-3.92162E+001
 21
2.614078E+001
  0
LINE
  8
MED-1
  6
CONTINUOUS
 62
40
 10
-3.92162E+001
 20
2.614078E+001
 11
-3.912817E+001
 21
2.602928E+001
  0
LINE
  8
MED-1
  6
CONTINUOUS
 62
40
 10
-3.647304E+001
 20
2.769567E+001
 11
-3.647576E+001
 21
2.695742E+001
  0
ARC
  8
MED-1
  6
CONTINUOUS
 62
40
 10
-3.647305E+001
 20
2.269565E+001
 40
5.0
 50
8.999989E+001
 51
1.2725694E+002
  0
LINE
  8
MED-1
  6
CONTINUOUS
 62
40
 10
-3.647304E+001
 20
2.769567E+001
 11
-3.183593E+001
 21
2.771249E+001
  0
LINE
  8
MED-1
  6
CONTINUOUS
 62
40
 10
1.4E+001
 20
2.3E+001
 11
1.4E+001
 21
2.52E+001
  0
LINE
  8
MED-1
  6
CONTINUOUS
 62
40
 10
1.4E+001
 20
2.08E+001
 11
1.4E+001
 21
2.3E+001
  0
LINE
  8
MED-1
  6
CONTINUOUS
 62
40
 10
-5.3
 20
2.3E+001
 11
-5.3
 21
1.905E+001
  0
LINE
  8
MED-1
  6
CONTINUOUS
 62
40
 10
-5.3
 20
2.695E+001
 11
-5.3
 21
2.3E+001
  0
LINE
  8
MED-1
  6
CONTINUOUS
 62
40
 10
1.400003E+001
 20
2.079999E+001
 11
1.369996E+001
 21
2.05E+001
  0
LINE
  8
MED-1
  6
CONTINUOUS
 62
40
 10
1.369996E+001
 20
2.3E+001
 11
1.369996E+001
 21
2.05E+001
  0
LINE
  8
MED-1
  6
CONTINUOUS
 62
40
 10
1.369996E+001
 20
2.549999E+001
 11
1.369996E+001
 21
2.3E+001
  0
LINE
  8
MED-1
  6
CONTINUOUS
 62
40
 10
1.369996E+001
 20
2.549999E+001
 11
1.400003E+001
 21
2.52E+001
  0
LINE
  8
MED-1
  6
CONTINUOUS
 62
40
 10
-5.00001
 20
2.3E+001
 11
-5.00001
 21
2.725001E+001
  0
LINE
  8
MED-1
  6
CONTINUOUS
 62
40
 10
-5.00001
 20
1.874998E+001
 11
-5.00001
 21
2.3E+001
  0
LINE
  8
MED-1
  6
CONTINUOUS
 62
40
 10
-5.00001
 20
2.725001E+001
 11
-1.99999
 21
2.725001E+001
  0
LINE
  8
MED-1
  6
CONTINUOUS
 62
40
 10
-1.99999
 20
1.874998E+001
 11
-5.00001
 21
1.874998E+001
  0
LINE
  8
MED-1
  6
CONTINUOUS
 62
40
 10
1.369996E+001
 20
2.05E+001
 11
-1.0E-005
 21
2.05E+001
  0
LINE
  8
MED-1
  6
CONTINUOUS
 62
40
 10
-1.0E-005
 20
2.549999E+001
 11
1.369996E+001
 21
2.549999E+001
  0
LINE
  8
MED-1
  6
CONTINUOUS
 62
40
 10
-5.00001
 20
1.874998E+001
 11
-5.01793
 21
1.87505E+001
  0
ARC
  8
MED-1
  6
CONTINUOUS
 62
40
 10
-5.0013833
 20
1.9030422E+001
 40
2.8041036E-001
 50
2.6288609E+002
 51
2.6661708E+002
  0
ARC
  8
MED-1
  6
CONTINUOUS
 62
40
 10
-4.9988784
 20
1.9054927E+001
 40
3.0503748E-001
 50
2.5947651E+002
 51
2.6298923E+002
  0
ARC
  8
MED-1
  6
CONTINUOUS
 62
40
 10
-4.9967401
 20
1.9066763E+001
 40
3.1706532E-001
 50
2.5604193E+002
 51
2.5948726E+002
  0
ARC
  8
MED-1
  6
CONTINUOUS
 62
40
 10
-4.9978191
 20
1.9056717E+001
 40
3.0705904E-001
 50
2.5216189E+002
 51
2.5578516E+002
  0
ARC
  8
MED-1
  6
CONTINUOUS
 62
40
 10
-4.9984952
 20
1.9054538E+001
 40
3.047772E-001
 50
2.4845281E+002
 51
2.5215739E+002
  0
ARC
  8
MED-1
  6
CONTINUOUS
 62
40
 10
-4.9976155
 20
1.905489E+001
 40
3.0542888E-001
 50
2.4457189E+002
 51
2.4832358E+002
  0
ARC
  8
MED-1
  6
CONTINUOUS
 62
40
 10
-4.997383
 20
1.9055617E+001
 40
3.061851E-001
 50
2.4080823E+002
 51
2.44591E+002
  0
ARC
  8
MED-1
  6
CONTINUOUS
 62
40
 10
-4.9977528
 20
1.905306E+001
 40
3.0377374E-001
 50
2.3678381E+002
 51
2.4063388E+002
  0
ARC
  8
MED-1
  6
CONTINUOUS
 62
40
 10
-4.9978795
 20
1.9053467E+001
 40
3.0404515E-001
 50
2.3297367E+002
 51
2.368458E+002
  0
ARC
  8
MED-1
  6
CONTINUOUS
 62
40
 10
-4.9971452
 20
1.9053276E+001
 40
3.0433578E-001
 50
2.2895445E+002
 51
2.3284168E+002
  0
ARC
  8
MED-1
  6
CONTINUOUS
 62
40
 10
-4.9985282
 20
1.9051876E+001
 40
3.0237185E-001
 50
2.2505287E+002
 51
2.289779E+002
  0
ARC
  8
MED-1
  6
CONTINUOUS
 62
40
 10
-5.0017395
 20
1.9047588E+001
 40
2.9706876E-001
 50
2.2090882E+002
 51
2.2490687E+002
  0
ARC
  8
MED-1
  6
CONTINUOUS
 62
40
 10
-4.998844
 20
1.9051627E+001
 40
3.0190478E-001
 50
2.1721574E+002
 51
2.2112838E+002
  0
ARC
  8
MED-1
  6
CONTINUOUS
 62
40
 10
-4.9871059
 20
1.9060196E+001
 40
3.1643519E-001
 50
2.1346611E+002
 51
2.1716585E+002
  0
ARC
  8
MED-1
  6
CONTINUOUS
 62
40
 10
-5.0030283
 20
1.9047169E+001
 40
2.9597588E-001
 50
2.090856E+002
 51
2.13062E+002
  0
ARC
  8
MED-1
  6
CONTINUOUS
 62
40
 10
-5.0337748
 20
1.9029458E+001
 40
2.604978E-001
 50
2.0440849E+002
 51
2.0896885E+002
  0
ARC
  8
MED-1
  6
CONTINUOUS
 62
40
 10
-4.9937925
 20
1.9056553E+001
 40
3.0821103E-001
 50
2.0230605E+002
 51
2.0592388E+002
  0
ARC
  8
MED-1
  6
CONTINUOUS
 62
40
 10
-4.711885
 20
1.9174874E+001
 40
6.1393744E-001
 50
2.0089688E+002
 51
2.0253636E+002
  0
ARC
  8
MED-1
  6
CONTINUOUS
 62
40
 10
-5.0327975
 20
1.9033479E+001
 40
2.6428833E-001
 50
1.9239051E+002
 51
1.970723E+002
  0
ARC
  8
MED-1
  6
CONTINUOUS
 62
40
 10
-5.060162
 20
1.902839E+001
 40
2.3647093E-001
 50
1.8481037E+002
 51
1.9260881E+002
  0
ARC
  8
MED-1
  6
CONTINUOUS
 62
40
 10
-4.7102045
 20
1.9088862E+001
 40
5.9107578E-001
 50
1.8377179E+002
 51
1.8780825E+002
  0
LINE
  8
MED-1
  6
CONTINUOUS
 62
40
 10
-5.3
 20
2.695001E+001
 11
-5.29948
 21
2.696794E+001
  0
ARC
  8
MED-1
  6
CONTINUOUS
 62
40
 10
-5.0196396
 20
2.6951554E+001
 40
2.8031978E-001
 50
1.7291684E+002
 51
1.7664884E+002
  0
ARC
  8
MED-1
  6
CONTINUOUS
 62
40
 10
-4.9953109
 20
2.6948896E+001
 40
3.0479065E-001
 50
1.6947134E+002
 51
1.7298505E+002
  0
ARC
  8
MED-1
  6
CONTINUOUS
 62
40
 10
-4.9833148
 20
2.6946759E+001
 40
3.1697531E-001
 50
1.6604144E+002
 51
1.6948775E+002
  0
ARC
  8
MED-1
  6
CONTINUOUS
 62
40
 10
-4.993361
 20
2.6948001E+001
 40
3.0692865E-001
 50
1.6218975E+002
 51
1.6581405E+002
  0
ARC
  8
MED-1
  6
CONTINUOUS
 62
40
 10
-4.9955416
 20
2.6948524E+001
 40
3.0469277E-001
 50
1.5845229E+002
 51
1.621579E+002
  0
ARC
  8
MED-1
  6
CONTINUOUS
 62
40
 10
-4.9953421
 20
2.6947796E+001
 40
3.0514626E-001
 50
1.5458622E+002
 51
1.5833891E+002
  0
ARC
  8
MED-1
  6
CONTINUOUS
 62
40
 10
-4.9943048
 20
2.6947262E+001
 40
3.0631231E-001
 50
1.5079557E+002
 51
1.545793E+002
  0
ARC
  8
MED-1
  6
CONTINUOUS
 62
40
 10
-4.9970047
 20
2.6947938E+001
 40
3.0362669E-001
 50
1.4680736E+002
 51
1.5065832E+002
  0
ARC
  8
MED-1
  6
CONTINUOUS
 62
40
 10
-4.9965895
 20
2.6947768E+001
 40
3.0406722E-001
 50
1.4295045E+002
 51
1.4682339E+002
  0
ARC
  8
MED-1
  6
CONTINUOUS
 62
40
 10
-4.9967723
 20
2.6947328E+001
 40
3.0418661E-001
 50
1.3897564E+002
 51
1.4286358E+002
  0
ARC
  8
MED-1
  6
CONTINUOUS
 62
40
 10
-4.9983114
 20
2.6948553E+001
 40
3.0222153E-001
 50
1.3503372E+002
 51
1.3895931E+002
  0
ARC
  8
MED-1
  6
CONTINUOUS
 62
40
 10
-5.0022983
 20
2.6951755E+001
 40
2.9713827E-001
 50
1.3092888E+002
 51
1.349273E+002
  0
ARC
  8
MED-1
  6
CONTINUOUS
 62
40
 10
-4.9983897
 20
2.6948712E+001
 40
3.0199921E-001
 50
1.2719806E+002
 51
1.3111096E+002
  0
ARC
  8
MED-1
  6
CONTINUOUS
 62
40
 10
-4.9898117
 20
2.6937117E+001
 40
3.164215E-001
 50
1.2346603E+002
 51
1.2716593E+002
  0
ARC
  8
MED-1
  6
CONTINUOUS
 62
40
 10
-5.0028376
 20
2.6953174E+001
 40
2.9585019E-001
 50
1.1909999E+002
 51
1.2307642E+002
  0
ARC
  8
MED-1
  6
CONTINUOUS
 62
40
 10
-5.0205428
 20
2.6983641E+001
 40
2.6061959E-001
 50
1.1439616E+002
 51
1.1895635E+002
  0
ARC
  8
MED-1
  6
CONTINUOUS
 62
40
 10
-4.9934373
 20
2.694377E+001
 40
3.0823548E-001
 50
1.1230619E+002
 51
1.1592374E+002
  0
ARC
  8
MED-1
  6
CONTINUOUS
 62
40
 10
-4.875103
 20
2.6661826E+001
 40
6.1400079E-001
 50
1.1089696E+002
 51
1.1253627E+002
  0
ARC
  8
MED-1
  6
CONTINUOUS
 62
40
 10
-5.0165073
 20
2.6982643E+001
 40
2.6443979E-001
 50
1.0238406E+002
 51
1.0706526E+002
  0
ARC
  8
MED-1
  6
CONTINUOUS
 62
40
 10
-5.0215935
 20
2.701012E+001
 40
2.3651374E-001
 50
9.4811077E+001
 51
1.0260811E+002
  0
ARC
  8
MED-1
  6
CONTINUOUS
 62
40
 10
-4.9609722
 20
2.6660078E+001
 40
5.9122232E-001
 50
9.3785931E+001
 51
9.7821489E+001
  0
LINE
  8
104
  6
CONTINUOUS
 62
1
 10
1.4E+001
 20
2.520003E+001
 11
0.0
 21
2.520003E+001
  0
LINE
  8
104
  6
CONTINUOUS
 62
1
 10
1.4E+001
 20
2.079996E+001
 11
0.0
 21
2.079996E+001
  0
ARC
  8
MED-1
  6
CONTINUOUS
 62
40
 10
-1.2E+001
 20
1.958334E+001
 40
6.0833333
 50
2.7E+002
 51
3.1111209E+002
  0
ARC
  8
MED-1
  6
CONTINUOUS
 62
40
 10
-1.2E+001
 20
1.958334E+001
 40
6.0833332
 50
2.2888791E+002
 51
2.7E+002
  0
LINE
  8
106
  6
CENTERLINE
 62
1
 10
1.845441E+001
 20
2.3E+001
 11
-5.8959662E+001
 21
2.3E+001
  0
POINT
  8
Drafting_Hidden_Entities
  6
CONTINUOUS
 62
1
 10
0.0
 20
0.0
  0
ENDBLK
  0
BLOCK
  2
*XH45
  3
*XH
 10
0.0
 20
0.0
 70
65
  0
LINE
  8
108
  6
CONTINUOUS
 62
1
 10
-1.158181
 20
-1.158181
 11
1.158181
 21
1.158181
  0
LINE
  8
108
  6
CONTINUOUS
 62
1
 10
-2.6642136
 20
1.6421356E-001
 11
1.158181
 21
3.9866081
  0
LINE
  8
108
  6
CONTINUOUS
 62
1
 10
-3.841819
 20
1.8150353
 11
-8.1503527E-001
 21
4.841819
  0
LINE
  8
108
  6
CONTINUOUS
 62
1
 10
-3.841819
 20
4.6434624
 11
-3.6434624
 21
4.841819
  0
ENDBLK
  0
BLOCK
  2
*XH46
  3
*XH
 10
0.0
 20
0.0
 70
65
  0
LINE
  8
108
  6
CONTINUOUS
 62
1
 10
-6.7289965E-001
 20
-6.7289965E-001
 11
6.7289965E-001
 21
6.7289965E-001
  0
LINE
  8
108
  6
CONTINUOUS
 62
1
 10
-2.6642136
 20
1.6421356E-001
 11
6.7289965E-001
 21
3.5013268
  0
LINE
  8
108
  6
CONTINUOUS
 62
1
 10
-4.0784271
 20
1.5784271
 11
6.7289965E-001
 21
6.3297539
  0
LINE
  8
108
  6
CONTINUOUS
 62
1
 10
-4.3271003
 20
4.158181
 11
6.7289965E-001
 21
9.158181
  0
LINE
  8
108
  6
CONTINUOUS
 62
1
 10
-4.3271003
 20
6.9866081
 11
-9.8660815E-001
 21
1.03271E+001
  0
ENDBLK
  0
BLOCK
  2
*XH47
  3
*XH
 10
0.0
 20
0.0
 70
65
  0
LINE
  8
108
  6
CONTINUOUS
 62
1
 10
-5.160454E-001
 20
-5.160454E-001
 11
5.160454E-001
 21
5.160454E-001
  0
LINE
  8
108
  6
CONTINUOUS
 62
1
 10
-2.6642136
 20
1.6421356E-001
 11
5.160454E-001
 21
3.3444725
  0
LINE
  8
108
  6
CONTINUOUS
 62
1
 10
-4.0784271
 20
1.5784271
 11
-1.7289965E-001
 21
5.4839546
  0
ENDBLK
  0
BLOCK
  2
*XH48
  3
*XH
 10
0.0
 20
0.0
 70
65
  0
LINE
  8
108
  6
CONTINUOUS
 62
1
 10
-3.0764027E-002
 20
-3.0764027E-002
 11
3.0764027E-002
 21
3.0764027E-002
  0
LINE
  8
108
  6
CONTINUOUS
 62
1
 10
-2.6642136
 20
1.6421356E-001
 11
3.0764027E-002
 21
2.8591912
  0
LINE
  8
108
  6
CONTINUOUS
 62
1
 10
-4.0784271
 20
1.5784271
 11
3.0764027E-002
 21
5.6876183
  0
LINE
  8
108
  6
CONTINUOUS
 62
1
 10
-4.969236
 20
3.5160454
 11
3.0764027E-002
 21
8.5160454
  0
LINE
  8
108
  6
CONTINUOUS
 62
1
 10
-4.969236
 20
6.3444725
 11
-3.4447253E-001
 21
1.0969236E+001
  0
ENDBLK
  0
BLOCK
  2
*XH49
  3
*XH
 10
0.0
 20
0.0
 70
65
  0
LINE
  8
108
  6
CONTINUOUS
 62
1
 10
-1.2881233
 20
-1.2881233
 11
1.2881233
 21
1.2881233
  0
LINE
  8
108
  6
CONTINUOUS
 62
1
 10
-3.7118767
 20
-8.8344954E-001
 11
1.2881233
 21
4.1165505
  0
LINE
  8
108
  6
CONTINUOUS
 62
1
 10
-3.7118767
 20
1.9449776
 11
-9.4497759E-001
 21
4.7118767
  0
ENDBLK
  0
BLOCK
  2
MONTAGEPLATTE
 10
0.0
 20
0.0
 70
0
  0
LINE
  8
104
  6
CONTINUOUS
 62
40
 10
-5.0
 20
-8.5
 11
-5.0
 21
5.15E+001
  0
LINE
  8
104
  6
CONTINUOUS
 62
40
 10
0.0
 20
-8.5
 11
0.0
 21
5.15E+001
  0
LINE
  8
104
  6
CONTINUOUS
 62
40
 10
0.0
 20
-8.5
 11
-5.0
 21
-8.5
  0
LINE
  8
104
  6
CONTINUOUS
 62
40
 10
-5.0
 20
5.15E+001
 11
0.0
 21
5.15E+001
  0
LINE
  8
106
  6
CENTERLINE
 62
1
 10
-5.0
 20
2.7E+001
 11
2.426452
 21
2.7E+001
  0
LINE
  8
106
  6
CENTERLINE
 62
1
 10
-5.0
 20
1.6E+001
 11
2.426452
 21
1.6E+001
  0
LINE
  8
106
  6
CENTERLINE
 62
1
 10
-5.0
 20
4.3E+001
 11
2.426452
 21
4.3E+001
  0
LINE
  8
106
  6
CENTERLINE
 62
1
 10
-5.0
 20
0.0
 11
2.426452
 21
0.0
  0
LINE
  8
104
  6
CONTINUOUS
 62
40
 10
-2.5
 20
2.95E+001
 11
0.0
 21
2.95E+001
  0
LINE
  8
104
  6
CONTINUOUS
 62
40
 10
-2.5
 20
2.45E+001
 11
0.0
 21
2.45E+001
  0
LINE
  8
104
  6
CONTINUOUS
 62
40
 10
-5.0
 20
2.2E+001
 11
-2.5
 21
2.45E+001
  0
LINE
  8
104
  6
CONTINUOUS
 62
40
 10
-5.0
 20
3.2E+001
 11
-2.5
 21
2.95E+001
  0
LINE
  8
104
  6
CONTINUOUS
 62
40
 10
-2.5
 20
2.95E+001
 11
-2.5
 21
2.45E+001
  0
LINE
  8
104
  6
CONTINUOUS
 62
40
 10
-5.0
 20
3.8E+001
 11
-2.5
 21
4.05E+001
  0
LINE
  8
104
  6
CONTINUOUS
 62
40
 10
-2.5
 20
4.05E+001
 11
0.0
 21
4.05E+001
  0
LINE
  8
104
  6
CONTINUOUS
 62
40
 10
-2.5
 20
4.55E+001
 11
-2.5
 21
4.05E+001
  0
LINE
  8
104
  6
CONTINUOUS
 62
40
 10
-5.0
 20
4.8E+001
 11
-2.5
 21
4.55E+001
  0
LINE
  8
104
  6
CONTINUOUS
 62
40
 10
-2.5
 20
4.55E+001
 11
0.0
 21
4.55E+001
  0
LINE
  8
104
  6
CONTINUOUS
 62
40
 10
-5.0
 20
1.1E+001
 11
-2.5
 21
1.35E+001
  0
LINE
  8
104
  6
CONTINUOUS
 62
40
 10
-2.5
 20
1.35E+001
 11
0.0
 21
1.35E+001
  0
LINE
  8
104
  6
CONTINUOUS
 62
40
 10
-2.5
 20
1.85E+001
 11
-2.5
 21
1.35E+001
  0
LINE
  8
104
  6
CONTINUOUS
 62
40
 10
-5.0
 20
2.1E+001
 11
-2.5
 21
1.85E+001
  0
LINE
  8
104
  6
CONTINUOUS
 62
40
 10
-2.5
 20
1.85E+001
 11
0.0
 21
1.85E+001
  0
LINE
  8
104
  6
CONTINUOUS
 62
40
 10
-5.0
 20
-5.0
 11
-2.5
 21
-2.5
  0
LINE
  8
104
  6
CONTINUOUS
 62
40
 10
-2.5
 20
-2.5
 11
0.0
 21
-2.5
  0
LINE
  8
104
  6
CONTINUOUS
 62
40
 10
-2.5
 20
2.5
 11
-2.5
 21
-2.5
  0
LINE
  8
104
  6
CONTINUOUS
 62
40
 10
-5.0
 20
5.0
 11
-2.5
 21
2.5
  0
LINE
  8
104
  6
CONTINUOUS
 62
40
 10
-2.5
 20
2.5
 11
0.0
 21
2.5
  0
INSERT
  2
*XH45
  8
108
 10
-1.158181
 20
4.6658181E+001
  0
INSERT
  2
*XH46
  8
108
 10
-6.7289965E-001
 20
3.01729E+001
  0
INSERT
  2
*XH47
  8
108
 10
-5.160454E-001
 20
1.9016045E+001
  0
INSERT
  2
*XH48
  8
108
 10
-3.0764027E-002
 20
2.530764
  0
INSERT
  2
*XH49
  8
108
 10
-1.2881233
 20
-7.2118767
  0
LINE
  8
106
  6
CENTERLINE
 62
1
 10
-5.0
 20
8.0
 11
2.426452
 21
8.0
  0
LINE
  8
106
  6
CENTERLINE
 62
1
 10
-5.0
 20
3.5E+001
 11
2.426452
 21
3.5E+001
  0
POINT
  8
Drafting_Hidden_Entities
  6
CONTINUOUS
 62
1
 10
0.0
 20
0.0
  0
ENDBLK
  0
BLOCK
  2
M5
 10
0.0
 20
0.0
 70
0
  0
LINE
  8
104
  6
CONTINUOUS
 62
1
 10
0.0
 20
-2.0
 11
1.1E+001
 21
-2.0
  0
LINE
  8
104
  6
CONTINUOUS
 62
40
 10
0.0
 20
-2.5
 11
1.1E+001
 21
-2.5
  0
LINE
  8
104
  6
CONTINUOUS
 62
40
 10
1.1E+001
 20
-2.5
 11
1.1E+001
 21
2.5
  0
LINE
  8
106
  6
CENTERLINE
 62
1
 10
2.426452
 20
0.0
 11
1.3070472E+001
 21
0.0
  0
LINE
  8
104
  6
CONTINUOUS
 62
1
 10
0.0
 20
2.0
 11
1.1E+001
 21
2.0
  0
LINE
  8
104
  6
CONTINUOUS
 62
40
 10
0.0
 20
2.5
 11
1.1E+001
 21
2.5
  0
POINT
  8
Drafting_Hidden_Entities
  6
CONTINUOUS
 62
1
 10
0.0
 20
0.0
  0
ENDBLK
  0
BLOCK
  2
1NEW00
 10
0.0
 20
0.0
 70
0
  0
LINE
  8
106
  6
CENTERLINE
 62
1
 10
-2.54999E+001
 20
8.551
 11
-2.54999E+001
 21
-9.988
  0
CIRCLE
  8
104
  6
CONTINUOUS
 62
40
 10
-2.54999E+001
 20
-3.65E+001
 40
6.0
  0
LINE
  8
104
  6
CONTINUOUS
 62
40
 10
-2.40565E+001
 20
-3.4E+001
 11
-2.69433E+001
 21
-3.4E+001
  0
LINE
  8
104
  6
CONTINUOUS
 62
40
 10
-2.69433E+001
 20
-3.4E+001
 11
-2.83867E+001
 21
-3.65E+001
  0
LINE
  8
104
  6
CONTINUOUS
 62
40
 10
-2.83867E+001
 20
-3.65E+001
 11
-2.69433E+001
 21
-3.9E+001
  0
LINE
  8
104
  6
CONTINUOUS
 62
40
 10
-2.69433E+001
 20
-3.9E+001
 11
-2.40565E+001
 21
-3.9E+001
  0
LINE
  8
104
  6
CONTINUOUS
 62
40
 10
-2.40565E+001
 20
-3.9E+001
 11
-2.26132E+001
 21
-3.65E+001
  0
LINE
  8
104
  6
CONTINUOUS
 62
40
 10
-2.26132E+001
 20
-3.65E+001
 11
-2.40565E+001
 21
-3.4E+001
  0
LINE
  8
106
  6
CENTERLINE
 62
1
 10
-3.42344E+001
 20
-3.65E+001
 11
-1.63139E+001
 21
-3.65E+001
  0
LINE
  8
106
  6
CENTERLINE
 62
1
 10
-2.54999E+001
 20
-4.5483E+001
 11
-2.54999E+001
 21
-2.7948E+001
  0
LINE
  8
106
  6
CENTERLINE
 62
1
 10
-5.0
 20
-5.9E+001
 11
-4.59999E+001
 21
-5.9E+001
  0
LINE
  8
106
  6
CENTERLINE
 62
1
 10
-5.0
 20
-1.4E+001
 11
-4.59999E+001
 21
-1.4E+001
  0
LINE
  8
104
  6
CONTINUOUS
 62
40
 10
-1.05592E+001
 20
-6.65E+001
 11
-1.71037E+001
 21
-7.075E+001
  0
LINE
  8
104
  6
CONTINUOUS
 62
40
 10
-1.71037E+001
 20
-7.075E+001
 11
-3.38962E+001
 21
-7.075E+001
  0
LINE
  8
104
  6
CONTINUOUS
 62
40
 10
-3.38962E+001
 20
-7.075E+001
 11
-4.04406E+001
 21
-6.65E+001
  0
LINE
  8
104
  6
CONTINUOUS
 62
40
 10
-4.74999E+001
 20
-6.5
 11
-4.74999E+001
 21
-8.8
  0
LINE
  8
104
  6
CONTINUOUS
 62
40
 10
-4.74999E+001
 20
-8.8
 11
-4.73863E+001
 21
-8.8
  0
LINE
  8
104
  6
CONTINUOUS
 62
40
 10
-4.73863E+001
 20
-8.8
 11
-4.59999E+001
 21
-8.063
  0
LINE
  8
104
  6
CONTINUOUS
 62
40
 10
-4.59999E+001
 20
-8.063
 11
-4.59999E+001
 21
-6.4937E+001
  0
LINE
  8
104
  6
CONTINUOUS
 62
40
 10
-4.59999E+001
 20
-6.4937E+001
 11
-4.73862E+001
 21
-6.42E+001
  0
LINE
  8
104
  6
CONTINUOUS
 62
40
 10
-4.73862E+001
 20
-6.42E+001
 11
-4.74999E+001
 21
-6.42E+001
  0
LINE
  8
104
  6
CONTINUOUS
 62
40
 10
-4.74999E+001
 20
-6.42E+001
 11
-4.74999E+001
 21
-6.65E+001
  0
LINE
  8
104
  6
CONTINUOUS
 62
40
 10
-4.74999E+001
 20
-6.65E+001
 11
-5.0
 21
-6.65E+001
  0
LINE
  8
104
  6
CONTINUOUS
 62
40
 10
-5.0
 20
-6.5
 11
-4.74999E+001
 21
-6.5
  0
LINE
  8
104
  6
CONTINUOUS
 62
40
 10
-4.59999E+001
 20
-8.4
 11
-4.64999E+001
 21
-8.4
  0
LINE
  8
104
  6
CONTINUOUS
 62
40
 10
-4.64999E+001
 20
-8.4
 11
-4.64999E+001
 21
-6.46E+001
  0
LINE
  8
104
  6
CONTINUOUS
 62
40
 10
-4.64999E+001
 20
-6.46E+001
 11
-4.59999E+001
 21
-6.46E+001
  0
LINE
  8
104
  6
CONTINUOUS
 62
40
 10
-4.59999E+001
 20
-6.46E+001
 11
-4.59999E+001
 21
-8.4
  0
LINE
  8
MED-1
  6
CONTINUOUS
 62
40
 10
-2.7391884E+001
 20
8.0
 11
-1.4499904E+001
 21
8.0
  0
LINE
  8
MED-1
  6
CONTINUOUS
 62
40
 10
-2.8787794E+001
 20
7.99998
 11
-2.7391884E+001
 21
8.0
  0
LINE
  8
MED-1
  6
CONTINUOUS
 62
40
 10
-6.2393861E+001
 20
7.9999855
 11
-2.8787794E+001
 21
7.99998
  0
LINE
  8
MED-1
  6
CONTINUOUS
 62
40
 10
-2.8787774E+001
 20
1.4E+001
 11
-2.8787794E+001
 21
7.99998
  0
LINE
  8
MED-1
  6
CONTINUOUS
 62
40
 10
-2.8787774E+001
 20
1.4E+001
 11
-6.2393859E+001
 21
1.4E+001
  0
LINE
  8
MED-1
  6
CONTINUOUS
 62
40
 10
-3.6499903E+001
 20
-6.5
 11
-3.6499914E+001
 21
7.99998
  0
LINE
  8
MED-1
  6
CONTINUOUS
 62
40
 10
-1.4499904E+001
 20
1.4E+001
 11
-1.4499904E+001
 21
-6.5
  0
LINE
  8
MED-1
  6
CONTINUOUS
 62
40
 10
-1.4507364E+001
 20
1.4E+001
 11
-2.8787774E+001
 21
1.4E+001
  0
POLYLINE
  8
106
  6
CENTERLINE
 62
1
 66
1
 40
0.0
 41
0.0
 70
2
  0
VERTEX
  8
106
 42
0.0
 10
-6.2393859E+001
 20
1.4E+001
 70
0
  0
VERTEX
  8
106
 42
9.2324079E-003
 10
-6.2552973E+001
 20
1.3773192E+001
 70
1
  0
VERTEX
  8
106
 42
8.8411803E-003
 10
-6.2699722E+001
 20
1.3547298E+001
 70
0
  0
VERTEX
  8
106
 42
1.0296252E-002
 10
-6.283401E+001
 20
1.3322353E+001
 70
1
  0
VERTEX
  8
106
 42
1.4267972E-002
 10
-6.2953502E+001
 20
1.3098332E+001
 70
0
  0
VERTEX
  8
106
 42
1.8048001E-002
 10
-6.3054066E+001
 20
1.2875293E+001
 70
1
  0
VERTEX
  8
106
 42
2.2083838E-002
 10
-6.3133801E+001
 20
1.2653209E+001
 70
0
  0
VERTEX
  8
106
 42
2.6064686E-002
 10
-6.3189285E+001
 20
1.2432132E+001
 70
1
  0
VERTEX
  8
106
 42
3.0114061E-002
 10
-6.3219221E+001
 20
1.2212032E+001
 70
0
  0
VERTEX
  8
106
 42
3.4583056E-002
 10
-6.3219888E+001
 20
1.1992962E+001
 70
1
  0
VERTEX
  8
106
 42
3.9550655E-002
 10
-6.3188366E+001
 20
1.1774905E+001
 70
0
  0
VERTEX
  8
106
 42
3.6229736E-002
 10
-6.3120403E+001
 20
1.1557921E+001
 70
1
  0
VERTEX
  8
106
 42
2.6791222E-002
 10
-6.302206E+001
 20
1.1341924E+001
 70
0
  0
VERTEX
  8
106
 42
1.3968395E-002
 10
-6.2900637E+001
 20
1.1126909E+001
 70
1
  0
VERTEX
  8
106
 42
-4.2625463E-003
 10
-6.2774372E+001
 20
1.0912824E+001
 70
0
  0
VERTEX
  8
106
 42
-2.2308062E-002
 10
-6.2663388E+001
 20
1.0699629E+001
 70
1
  0
VERTEX
  8
106
 42
-4.8714177E-002
 10
-6.2587532E+001
 20
1.0486907E+001
 70
0
  0
VERTEX
  8
106
 42
-6.8097367E-002
 10
-6.2567103E+001
 20
1.0274495E+001
 70
1
  0
VERTEX
  8
106
 42
-7.2067293E-002
 10
-6.2606241E+001
 20
1.0063466E+001
 70
0
  0
VERTEX
  8
106
 42
-4.4895101E-002
 10
-6.2704572E+001
 20
9.8542473
 70
1
  0
VERTEX
  8
106
 42
-5.698894E-004
 10
-6.2827267E+001
 20
9.6425173
 70
0
  0
VERTEX
  8
106
 42
1.6372564E-002
 10
-6.2939477E+001
 20
9.4269477
 70
1
  0
VERTEX
  8
106
 42
1.8487067E-002
 10
-6.3027971E+001
 20
9.2251494
 70
0
  0
VERTEX
  8
106
 42
8.9583672E-002
 10
-6.3072235E+001
 20
9.0433145
 70
1
  0
VERTEX
  8
106
 42
1.243969E-001
 10
-6.30112E+001
 20
8.8123275
 70
0
  0
VERTEX
  8
106
 42
4.4765343E-002
 10
-6.2780095E+001
 20
8.4597643
 70
1
  0
VERTEX
  8
106
 42
2.1079969E-002
 10
-6.2393861E+001
 20
7.9999855
 70
0
  0
SEQEND
  0
INSERT
  2
MONTAGEPLATTE
  8
109
 10
0.0
 20
-5.8E+001
  0
LINE
  8
104
  6
CONTINUOUS
 62
40
 10
0.0
 20
0.0
 11
8.2265901
 21
0.0
  0
LINE
  8
104
  6
CONTINUOUS
 62
40
 10
0.0
 20
-6.5
 11
0.0
 21
0.0
  0
INSERT
  2
M5
  8
109
 10
0.0
 20
-5.8E+001
  0
INSERT
  2
M5
  8
109
 10
0.0
 20
-4.2E+001
  0
LINE
  8
MED-1
  6
CONTINUOUS
 62
40
 10
-2.0
 20
3.1E+001
 11
-5.23621
 21
3.1E+001
  0
LINE
  8
MED-1
  6
CONTINUOUS
 62
40
 10
-5.23621
 20
3.1E+001
 11
-6.44927
 21
3.1E+001
  0
LINE
  8
MED-1
  6
CONTINUOUS
 62
40
 10
-6.44927
 20
3.1E+001
 11
-1.806535E+001
 21
3.1E+001
  0
LINE
  8
MED-1
  6
CONTINUOUS
 62
40
 10
-1.806535E+001
 20
3.1E+001
 11
-1.95E+001
 21
3.1E+001
  0
LINE
  8
MED-1
  6
CONTINUOUS
 62
40
 10
-1.95E+001
 20
1.5E+001
 11
-1.806535E+001
 21
1.5E+001
  0
LINE
  8
MED-1
  6
CONTINUOUS
 62
40
 10
-1.806535E+001
 20
1.5E+001
 11
-6.44927
 21
1.5E+001
  0
LINE
  8
MED-1
  6
CONTINUOUS
 62
40
 10
-6.44927
 20
1.5E+001
 11
-5.23621
 21
1.5E+001
  0
LINE
  8
MED-1
  6
CONTINUOUS
 62
40
 10
-2.0
 20
1.5E+001
 11
-5.23621
 21
1.5E+001
  0
LINE
  8
MED-1
  6
CONTINUOUS
 62
40
 10
-5.23621
 20
1.7E+001
 11
-2.0
 21
1.7E+001
  0
LINE
  8
MED-1
  6
CONTINUOUS
 62
40
 10
-5.23621
 20
1.7E+001
 11
-6.44927
 21
1.7E+001
  0
LINE
  8
MED-1
  6
CONTINUOUS
 62
40
 10
-6.44927
 20
1.7E+001
 11
-1.806535E+001
 21
1.7E+001
  0
LINE
  8
MED-1
  6
CONTINUOUS
 62
40
 10
-1.806535E+001
 20
1.7E+001
 11
-1.95E+001
 21
1.7E+001
  0
LINE
  8
MED-1
  6
CONTINUOUS
 62
40
 10
-1.95E+001
 20
2.9E+001
 11
-1.806535E+001
 21
2.9E+001
  0
LINE
  8
MED-1
  6
CONTINUOUS
 62
40
 10
-1.806535E+001
 20
2.9E+001
 11
-6.44927
 21
2.9E+001
  0
LINE
  8
MED-1
  6
CONTINUOUS
 62
40
 10
-6.44927
 20
2.9E+001
 11
-5.23621
 21
2.9E+001
  0
LINE
  8
MED-1
  6
CONTINUOUS
 62
40
 10
-2.0
 20
2.9E+001
 11
-5.23621
 21
2.9E+001
  0
ARC
  8
MED-1
  6
CONTINUOUS
 62
40
 10
-2.0
 20
2.9E+001
 40
2.0000001
 50
0.0
 51
9.0E+001
  0
ARC
  8
MED-1
  6
CONTINUOUS
 62
40
 10
-2.0
 20
1.7E+001
 40
1.9999999
 50
2.7E+002
 51
3.6E+002
  0
LINE
  8
MED-1
  6
CONTINUOUS
 62
40
 10
-2.0
 20
1.7E+001
 11
-2.0
 21
2.9E+001
  0
LINE
  8
MED-1
  6
CONTINUOUS
 62
40
 10
0.0
 20
2.9E+001
 11
0.0
 21
1.7E+001
  0
LINE
  8
MED-1
  6
CONTINUOUS
 62
40
 10
-1.95E+001
 20
2.9E+001
 11
-1.95E+001
 21
3.1E+001
  0
LINE
  8
MED-1
  6
CONTINUOUS
 62
40
 10
-1.95E+001
 20
1.5E+001
 11
-1.95E+001
 21
1.7E+001
  0
CIRCLE
  8
MED-1
  6
CONTINUOUS
 62
40
 10
-2.9E+001
 20
2.3E+001
 40
3.5
  0
ARC
  8
MED-1
  6
CONTINUOUS
 62
40
 10
-1.2E+001
 20
2.641667E+001
 40
6.0833332
 50
4.888791E+001
 51
9.0E+001
  0
ARC
  8
MED-1
  6
CONTINUOUS
 62
40
 10
-1.2E+001
 20
2.641667E+001
 40
6.0833333
 50
9.0E+001
 51
1.3111209E+002
  0
LINE
  8
MED-1
  6
CONTINUOUS
 62
40
 10
-7.0
 20
1.725E+001
 11
-1.7E+001
 21
1.725E+001
  0
LINE
  8
MED-1
  6
CONTINUOUS
 62
40
 10
-1.7E+001
 20
2.875E+001
 11
-7.0
 21
2.875E+001
  0
LINE
  8
MED-1
  6
CONTINUOUS
 62
40
 10
-7.0
 20
2.875E+001
 11
-6.99999
 21
2.850001E+001
  0
LINE
  8
MED-1
  6
CONTINUOUS
 62
40
 10
-6.99999
 20
1.749998E+001
 11
-7.0
 21
1.725E+001
  0
LINE
  8
MED-1
  6
CONTINUOUS
 62
40
 10
-1.7E+001
 20
1.725E+001
 11
-1.699999E+001
 21
1.749998E+001
  0
LINE
  8
MED-1
  6
CONTINUOUS
 62
40
 10
-1.699999E+001
 20
2.850001E+001
 11
-1.7E+001
 21
2.875E+001
  0
ARC
  8
MED-1
  6
CONTINUOUS
 62
40
 10
-2.9E+001
 20
2.3E+001
 40
5.5
 50
9.0E+001
 51
1.8E+002
  0
ARC
  8
MED-1
  6
CONTINUOUS
 62
40
 10
-2.9E+001
 20
2.3E+001
 40
5.5
 50
1.8E+002
 51
2.7E+002
  0
LINE
  8
MED-1
  6
CONTINUOUS
 62
40
 10
-1.720481E+001
 20
2.85E+001
 11
-4.5
 21
2.85E+001
  0
LINE
  8
MED-1
  6
CONTINUOUS
 62
40
 10
-1.720481E+001
 20
2.85E+001
 11
-1.893975E+001
 21
2.85E+001
  0
LINE
  8
MED-1
  6
CONTINUOUS
 62
40
 10
-1.893975E+001
 20
2.85E+001
 11
-2.9E+001
 21
2.85E+001
  0
LINE
  8
MED-1
  6
CONTINUOUS
 62
40
 10
-2.9E+001
 20
1.75E+001
 11
-1.893975E+001
 21
1.75E+001
  0
LINE
  8
MED-1
  6
CONTINUOUS
 62
40
 10
-1.893975E+001
 20
1.75E+001
 11
-1.720481E+001
 21
1.75E+001
  0
LINE
  8
MED-1
  6
CONTINUOUS
 62
40
 10
-4.5
 20
1.75E+001
 11
-1.720481E+001
 21
1.75E+001
  0
LINE
  8
MED-1
  6
CONTINUOUS
 62
40
 10
-1.720481E+001
 20
1.75E+001
 11
-1.720481E+001
 21
2.85E+001
  0
LINE
  8
MED-1
  6
CONTINUOUS
 62
40
 10
-4.5
 20
2.85E+001
 11
-4.49999
 21
2.725001E+001
  0
LINE
  8
MED-1
  6
CONTINUOUS
 62
40
 10
-4.5
 20
1.875E+001
 11
-4.5
 21
1.75E+001
  0
LINE
  8
MED-1
  6
CONTINUOUS
 62
40
 10
-3.95E+001
 20
2.022236E+001
 11
-3.949975E+001
 21
1.946704E+001
  0
LINE
  8
MED-1
  6
CONTINUOUS
 62
40
 10
-3.95E+001
 20
2.022236E+001
 11
-3.95E+001
 21
2.023821E+001
  0
LINE
  8
MED-1
  6
CONTINUOUS
 62
40
 10
-3.95E+001
 20
2.57618E+001
 11
-3.95E+001
 21
2.023821E+001
  0
LINE
  8
MED-1
  6
CONTINUOUS
 62
40
 10
-3.95E+001
 20
2.650026E+001
 11
-3.95E+001
 21
2.582649E+001
  0
LINE
  8
MED-1
  6
CONTINUOUS
 62
40
 10
-3.95E+001
 20
2.57618E+001
 11
-3.95E+001
 21
2.582649E+001
  0
LINE
  8
MED-1
  6
CONTINUOUS
 62
40
 10
-3.95E+001
 20
2.66753E+001
 11
-3.95E+001
 21
2.650026E+001
  0
LINE
  8
MED-1
  6
CONTINUOUS
 62
40
 10
-3.630001E+001
 20
1.824997E+001
 11
-3.630001E+001
 21
1.898822E+001
  0
LINE
  8
MED-1
  6
CONTINUOUS
 62
40
 10
-3.177264E+001
 20
1.825E+001
 11
-3.205563E+001
 21
1.825E+001
  0
LINE
  8
MED-1
  6
CONTINUOUS
 62
40
 10
-3.205563E+001
 20
1.825E+001
 11
-3.233856E+001
 21
1.825E+001
  0
LINE
  8
MED-1
  6
CONTINUOUS
 62
40
 10
-3.233856E+001
 20
1.825E+001
 11
-3.262138E+001
 21
1.825E+001
  0
LINE
  8
MED-1
  6
CONTINUOUS
 62
40
 10
-3.262138E+001
 20
1.825E+001
 11
-3.290448E+001
 21
1.825E+001
  0
LINE
  8
MED-1
  6
CONTINUOUS
 62
40
 10
-3.290448E+001
 20
1.825E+001
 11
-3.318801E+001
 21
1.825E+001
  0
LINE
  8
MED-1
  6
CONTINUOUS
 62
40
 10
-3.318801E+001
 20
1.825E+001
 11
-3.34704E+001
 21
1.825E+001
  0
LINE
  8
MED-1
  6
CONTINUOUS
 62
40
 10
-3.34704E+001
 20
1.825E+001
 11
-3.37511E+001
 21
1.825E+001
  0
LINE
  8
MED-1
  6
CONTINUOUS
 62
40
 10
-3.37511E+001
 20
1.825E+001
 11
-3.403632E+001
 21
1.825E+001
  0
LINE
  8
MED-1
  6
CONTINUOUS
 62
40
 10
-3.403632E+001
 20
1.825E+001
 11
-3.432821E+001
 21
1.825E+001
  0
LINE
  8
MED-1
  6
CONTINUOUS
 62
40
 10
-3.432821E+001
 20
1.825E+001
 11
-3.460224E+001
 21
1.824999E+001
  0
LINE
  8
MED-1
  6
CONTINUOUS
 62
40
 10
-3.460224E+001
 20
1.824999E+001
 11
-3.484999E+001
 21
1.824999E+001
  0
LINE
  8
MED-1
  6
CONTINUOUS
 62
40
 10
-3.484999E+001
 20
1.824999E+001
 11
-3.516817E+001
 21
1.824999E+001
  0
LINE
  8
MED-1
  6
CONTINUOUS
 62
40
 10
-3.516817E+001
 20
1.824999E+001
 11
-3.565823E+001
 21
1.824998E+001
  0
LINE
  8
MED-1
  6
CONTINUOUS
 62
40
 10
-3.565823E+001
 20
1.824998E+001
 11
-3.630001E+001
 21
1.824997E+001
  0
LINE
  8
MED-1
  6
CONTINUOUS
 62
40
 10
-3.276239E+001
 20
1.898821E+001
 11
-3.630001E+001
 21
1.898822E+001
  0
LINE
  8
MED-1
  6
CONTINUOUS
 62
40
 10
-3.937653E+001
 20
1.938092E+001
 11
-3.93726E+001
 21
1.938556E+001
  0
ARC
  8
MED-1
  6
CONTINUOUS
 62
40
 10
-2.8385165E+001
 20
1.0051235E+001
 40
1.441712E+001
 50
1.3958391E+002
 51
1.3965059E+002
  0
LINE
  8
MED-1
  6
CONTINUOUS
 62
40
 10
-3.936173E+001
 20
1.939834E+001
 11
-3.934383E+001
 21
1.94194E+001
  0
LINE
  8
MED-1
  6
CONTINUOUS
 62
40
 10
-3.934383E+001
 20
1.94194E+001
 11
-3.931791E+001
 21
1.94499E+001
  0
LINE
  8
MED-1
  6
CONTINUOUS
 62
40
 10
-3.931791E+001
 20
1.94499E+001
 11
-3.92834E+001
 21
1.949049E+001
  0
LINE
  8
MED-1
  6
CONTINUOUS
 62
40
 10
-3.92834E+001
 20
1.949049E+001
 11
-3.924672E+001
 21
1.953364E+001
  0
LINE
  8
MED-1
  6
CONTINUOUS
 62
40
 10
-3.924672E+001
 20
1.953364E+001
 11
-3.920995E+001
 21
1.95769E+001
  0
LINE
  8
MED-1
  6
CONTINUOUS
 62
40
 10
-3.920995E+001
 20
1.95769E+001
 11
-3.915079E+001
 21
1.96465E+001
  0
LINE
  8
MED-1
  6
CONTINUOUS
 62
40
 10
-3.915079E+001
 20
1.96465E+001
 11
-3.904528E+001
 21
1.977062E+001
  0
LINE
  8
MED-1
  6
CONTINUOUS
 62
40
 10
-3.904528E+001
 20
1.977062E+001
 11
-3.889837E+001
 21
1.994343E+001
  0
LINE
  8
MED-1
  6
CONTINUOUS
 62
40
 10
-3.630001E+001
 20
1.824997E+001
 11
-3.647295E+001
 21
1.825306E+001
  0
ARC
  8
MED-1
  6
CONTINUOUS
 62
40
 10
-3.6297491E+001
 20
2.3292887E+001
 40
5.0428806
 50
2.6606087E+002
 51
2.6800608E+002
  0
ARC
  8
MED-1
  6
CONTINUOUS
 62
40
 10
-3.6301575E+001
 20
2.3120683E+001
 40
4.8708089
 50
2.6397496E+002
 51
2.6596964E+002
  0
ARC
  8
MED-1
  6
CONTINUOUS
 62
40
 10
-3.6313787E+001
 20
2.3013242E+001
 40
4.7626796
 50
2.6196142E+002
 51
2.639854E+002
  0
ARC
  8
MED-1
  6
CONTINUOUS
 62
40
 10
-3.6314903E+001
 20
2.2975249E+001
 40
4.7249057
 50
2.5988441E+002
 51
2.6191039E+002
  0
ARC
  8
MED-1
  6
CONTINUOUS
 62
40
 10
-3.6322487E+001
 20
2.2951077E+001
 40
4.6997785
 50
2.5789897E+002
 51
2.5992367E+002
  0
ARC
  8
MED-1
  6
CONTINUOUS
 62
40
 10
-3.6317237E+001
 20
2.2954942E+001
 40
4.7046604
 50
2.5583385E+002
 51
2.5784633E+002
  0
ARC
  8
MED-1
  6
CONTINUOUS
 62
40
 10
-3.6329182E+001
 20
2.2911913E+001
 40
4.6600159
 50
2.5381979E+002
 51
2.5584678E+002
  0
ARC
  8
MED-1
  6
CONTINUOUS
 62
40
 10
-3.6344775E+001
 20
2.2843603E+001
 40
4.5900692
 50
2.5171292E+002
 51
2.5376911E+002
  0
ARC
  8
MED-1
  6
CONTINUOUS
 62
40
 10
-3.6311492E+001
 20
2.2983475E+001
 40
4.7333367
 50
2.4987768E+002
 51
2.5186164E+002
  0
ARC
  8
MED-1
  6
CONTINUOUS
 62
40
 10
-3.6181201E+001
 20
2.33347E+001
 40
5.1079465
 50
2.480334E+002
 51
2.4986077E+002
  0
ARC
  8
MED-1
  6
CONTINUOUS
 62
40
 10
-3.6315887E+001
 20
2.2934926E+001
 40
4.6868783
 50
2.4570623E+002
 51
2.4773225E+002
  0
ARC
  8
MED-1
  6
CONTINUOUS
 62
40
 10
-3.6606349E+001
 20
2.2273988E+001
 40
3.9649732
 50
2.4314489E+002
 51
2.456025E+002
  0
ARC
  8
MED-1
  6
CONTINUOUS
 62
40
 10
-3.624115E+001
 20
2.3179089E+001
 40
4.9381325
 50
2.4225205E+002
 51
2.4410858E+002
  0
ARC
  8
MED-1
  6
CONTINUOUS
 62
40
 10
-3.2065266E+001
 20
3.1177506E+001
 40
1.3961015E+001
 50
2.4177296E+002
 51
2.4236799E+002
  0
ARC
  8
MED-1
  6
CONTINUOUS
 62
40
 10
-3.660438E+001
 20
2.2346754E+001
 40
4.0374599
 50
2.3658323E+002
 51
2.392557E+002
  0
ARC
  8
MED-1
  6
CONTINUOUS
 62
40
 10
-3.6823677E+001
 20
2.2038926E+001
 40
3.6597724
 50
2.3219282E+002
 51
2.3679483E+002
  0
ARC
  8
MED-1
  6
CONTINUOUS
 62
40
 10
-3.3133903E+001
 20
2.7330744E+001
 40
1.0107922E+001
 50
2.3185911E+002
 51
2.3405639E+002
  0
LINE
  8
MED-1
  6
CONTINUOUS
 62
40
 10
-3.630001E+001
 20
1.898822E+001
 11
-3.644607E+001
 21
1.899082E+001
  0
ARC
  8
MED-1
  6
CONTINUOUS
 62
40
 10
-3.6298338E+001
 20
2.3245989E+001
 40
4.2577323
 50
2.6606572E+002
 51
2.6801159E+002
  0
ARC
  8
MED-1
  6
CONTINUOUS
 62
40
 10
-3.6301475E+001
 20
2.3100503E+001
 40
4.1123802
 50
2.6397486E+002
 51
2.6597025E+002
  0
ARC
  8
MED-1
  6
CONTINUOUS
 62
40
 10
-3.631214E+001
 20
2.3009815E+001
 40
4.0210735
 50
2.6196568E+002
 51
2.6399035E+002
  0
ARC
  8
MED-1
  6
CONTINUOUS
 62
40
 10
-3.6312831E+001
 20
2.2977899E+001
 40
3.9893757
 50
2.598849E+002
 51
2.6191145E+002
  0
ARC
  8
MED-1
  6
CONTINUOUS
 62
40
 10
-3.6319063E+001
 20
2.2957974E+001
 40
3.9686668
 50
2.5789778E+002
 51
2.5992295E+002
  0
ARC
  8
MED-1
  6
CONTINUOUS
 62
40
 10
-3.6314832E+001
 20
2.2961074E+001
 40
3.9725872
 50
2.5583462E+002
 51
2.5784749E+002
  0
ARC
  8
MED-1
  6
CONTINUOUS
 62
40
 10
-3.6324723E+001
 20
2.2924947E+001
 40
3.9351377
 50
2.5381821E+002
 51
2.5584552E+002
  0
ARC
  8
MED-1
  6
CONTINUOUS
 62
40
 10
-3.6338085E+001
 20
2.2867673E+001
 40
3.8764107
 50
2.5171554E+002
 51
2.5377197E+002
  0
ARC
  8
MED-1
  6
CONTINUOUS
 62
40
 10
-3.6309584E+001
 20
2.2985627E+001
 40
3.9973634
 50
2.49874E+002
 51
2.5185808E+002
  0
ARC
  8
MED-1
  6
CONTINUOUS
 62
40
 10
-3.6199823E+001
 20
2.3282935E+001
 40
4.3142848
 50
2.4803655E+002
 51
2.4986391E+002
  0
ARC
  8
MED-1
  6
CONTINUOUS
 62
40
 10
-3.6313506E+001
 20
2.294483E+001
 40
3.958255
 50
2.4570611E+002
 51
2.4773223E+002
  0
ARC
  8
MED-1
  6
CONTINUOUS
 62
40
 10
-3.6558987E+001
 20
2.2386264E+001
 40
3.3481617
 50
2.4314436E+002
 51
2.456024E+002
  0
ARC
  8
MED-1
  6
CONTINUOUS
 62
40
 10
-3.6250662E+001
 20
2.3150308E+001
 40
4.1696748
 50
2.4225052E+002
 51
2.4410739E+002
  0
ARC
  8
MED-1
  6
CONTINUOUS
 62
40
 10
-3.2721591E+001
 20
2.9910087E+001
 40
1.1795207E+001
 50
2.4177318E+002
 51
2.4236806E+002
  0
ARC
  8
MED-1
  6
CONTINUOUS
 62
40
 10
-3.6557684E+001
 20
2.244713E+001
 40
3.4086908
 50
2.3658113E+002
 51
2.3925458E+002
  0
ARC
  8
MED-1
  6
CONTINUOUS
 62
40
 10
-3.6742858E+001
 20
2.2186921E+001
 40
3.0895375
 50
2.3218539E+002
 51
2.367897E+002
  0
ARC
  8
MED-1
  6
CONTINUOUS
 62
40
 10
-3.3627746E+001
 20
2.6653901E+001
 40
8.532872
 50
2.3185275E+002
 51
2.3405113E+002
  0
LINE
  8
MED-1
  6
CONTINUOUS
 62
40
 10
-3.937653E+001
 20
1.938092E+001
 11
-3.938783E+001
 21
1.939044E+001
  0
ARC
  8
MED-1
  6
CONTINUOUS
 62
40
 10
-4.0371214E+001
 20
1.8211041E+001
 40
1.5355867
 50
5.0178631E+001
 51
5.0696498E+001
  0
ARC
  8
MED-1
  6
CONTINUOUS
 62
40
 10
-4.0188881E+001
 20
1.8429918E+001
 40
1.2507263
 50
5.0808572E+001
 51
5.140246E+001
  0
ARC
  8
MED-1
  6
CONTINUOUS
 62
40
 10
-4.0052596E+001
 20
1.8598946E+001
 40
1.0336027
 50
5.1461535E+001
 51
5.2133791E+001
  0
ARC
  8
MED-1
  6
CONTINUOUS
 62
40
 10
-3.9963443E+001
 20
1.8712737E+001
 40
8.8904782E-001
 50
5.2168206E+001
 51
5.2898169E+001
  0
ARC
  8
MED-1
  6
CONTINUOUS
 62
40
 10
-3.9895248E+001
 20
1.8801573E+001
 40
7.7705764E-001
 50
5.2957234E+001
 51
5.3736617E+001
  0
ARC
  8
MED-1
  6
CONTINUOUS
 62
40
 10
-3.9849207E+001
 20
1.8862258E+001
 40
7.008952E-001
 50
5.3837084E+001
 51
5.4639992E+001
  0
ARC
  8
MED-1
  6
CONTINUOUS
 62
40
 10
-3.9769768E+001
 20
1.8972148E+001
 40
5.6530546E-001
 50
5.4760529E+001
 51
5.5700719E+001
  0
ARC
  8
MED-1
  6
CONTINUOUS
 62
40
 10
-3.9693815E+001
 20
1.9081203E+001
 40
4.3241601E-001
 50
5.5871809E+001
 51
5.7037154E+001
  0
ARC
  8
MED-1
  6
CONTINUOUS
 62
40
 10
-3.9700372E+001
 20
1.9075801E+001
 40
4.405232E-001
 50
5.6703906E+001
 51
5.7729603E+001
  0
ARC
  8
MED-1
  6
CONTINUOUS
 62
40
 10
-3.9863959E+001
 20
1.8817963E+001
 40
7.4587689E-001
 50
5.7679239E+001
 51
5.8203133E+001
  0
ARC
  8
MED-1
  6
CONTINUOUS
 62
40
 10
-3.9628724E+001
 20
1.9184377E+001
 40
3.1058211E-001
 50
5.9469723E+001
 51
6.0913372E+001
  0
ARC
  8
MED-1
  6
CONTINUOUS
 62
40
 10
-3.959502E+001
 20
1.924387E+001
 40
2.4220825E-001
 50
6.1039162E+001
 51
6.3638087E+001
  0
ARC
  8
MED-1
  6
CONTINUOUS
 62
40
 10
-3.9728574E+001
 20
1.8994802E+001
 40
5.2475653E-001
 50
6.2647841E+001
 51
6.4147429E+001
  0
LINE
  8
MED-1
  6
CONTINUOUS
 62
40
 10
-3.889837E+001
 20
1.994343E+001
 11
-3.892528E+001
 21
1.996566E+001
  0
ARC
  8
MED-1
  6
CONTINUOUS
 62
40
 10
-3.9750718E+001
 20
1.8939806E+001
 40
1.3167097
 50
5.1178618E+001
 51
5.2685371E+001
  0
ARC
  8
MED-1
  6
CONTINUOUS
 62
40
 10
-3.9727716E+001
 20
1.89674E+001
 40
1.2808214
 50
5.2755471E+001
 51
5.4292063E+001
  0
ARC
  8
MED-1
  6
CONTINUOUS
 62
40
 10
-3.971418E+001
 20
1.8987058E+001
 40
1.2569586
 50
5.4270085E+001
 51
5.5825653E+001
  0
ARC
  8
MED-1
  6
CONTINUOUS
 62
40
 10
-3.9707109E+001
 20
1.8995486E+001
 40
1.2460141
 50
5.5876972E+001
 51
5.7436414E+001
  0
ARC
  8
MED-1
  6
CONTINUOUS
 62
40
 10
-3.970309E+001
 20
1.9002815E+001
 40
1.2376739
 50
5.7410602E+001
 51
5.897135E+001
  0
ARC
  8
MED-1
  6
CONTINUOUS
 62
40
 10
-3.9701541E+001
 20
1.9003706E+001
 40
1.236113
 50
5.9011565E+001
 51
6.0566537E+001
  0
ARC
  8
MED-1
  6
CONTINUOUS
 62
40
 10
-3.9693561E+001
 20
1.9017575E+001
 40
1.2201121
 50
6.0572852E+001
 51
6.214333E+001
  0
ARC
  8
MED-1
  6
CONTINUOUS
 62
40
 10
-3.9681578E+001
 20
1.9038497E+001
 40
1.1960163
 50
6.2182556E+001
 51
6.3781316E+001
  0
ARC
  8
MED-1
  6
CONTINUOUS
 62
40
 10
-3.9695982E+001
 20
1.901456E+001
 40
1.2238562
 50
6.3671434E+001
 51
6.5223549E+001
  0
ARC
  8
MED-1
  6
CONTINUOUS
 62
40
 10
-3.9729645E+001
 20
1.8940485E+001
 40
1.30522
 50
6.5244604E+001
 51
6.6688969E+001
  0
ARC
  8
MED-1
  6
CONTINUOUS
 62
40
 10
-3.9686622E+001
 20
1.902948E+001
 40
1.2064724
 50
6.6892865E+001
 51
6.8477617E+001
  0
ARC
  8
MED-1
  6
CONTINUOUS
 62
40
 10
-3.9625285E+001
 20
1.9182182E+001
 40
1.0419151
 50
6.8534757E+001
 51
7.0412085E+001
  0
ARC
  8
MED-1
  6
CONTINUOUS
 62
40
 10
-3.9726645E+001
 20
1.8947074E+001
 40
1.297506
 50
6.9675794E+001
 51
7.1091114E+001
  0
ARC
  8
MED-1
  6
CONTINUOUS
 62
40
 10
-4.047828E+001
 20
1.6767453E+001
 40
3.6030852
 50
7.1015803E+001
 51
7.1476784E+001
  0
ARC
  8
MED-1
  6
CONTINUOUS
 62
40
 10
-3.9637501E+001
 20
1.916672E+001
 40
1.0615833
 50
7.3366259E+001
 51
7.5380008E+001
  0
ARC
  8
MED-1
  6
CONTINUOUS
 62
40
 10
-3.9609144E+001
 20
1.928343E+001
 40
9.4149625E-001
 50
7.5257102E+001
 51
7.8770034E+001
  0
ARC
  8
MED-1
  6
CONTINUOUS
 62
40
 10
-3.9982033E+001
 20
1.7725251E+001
 40
2.5432237
 50
7.7366389E+001
 51
7.9073593E+001
  0
LINE
  8
MED-1
  6
CONTINUOUS
 62
40
 10
-3.949997E+001
 20
1.949997E+001
 11
-5.8325081E+001
 21
1.949997E+001
  0
LINE
  8
MED-1
  6
CONTINUOUS
 62
40
 10
-5.9171194E+001
 20
2.6499957E+001
 11
-3.95E+001
 21
2.650026E+001
  0
LINE
  8
MED-1
  6
CONTINUOUS
 62
40
 10
-3.949997E+001
 20
2.582647E+001
 11
-3.948022E+001
 21
2.583333E+001
  0
ARC
  8
MED-1
  6
CONTINUOUS
 62
40
 10
-3.9903388E+001
 20
2.7019663E+001
 40
1.2595459
 50
2.8963145E+002
 51
2.9058286E+002
  0
ARC
  8
MED-1
  6
CONTINUOUS
 62
40
 10
-3.9909348E+001
 20
2.7033549E+001
 40
1.2746414
 50
2.9061423E+002
 51
2.9155512E+002
  0
ARC
  8
MED-1
  6
CONTINUOUS
 62
40
 10
-3.9905194E+001
 20
2.7024235E+001
 40
1.2644526
 50
2.9153509E+002
 51
2.9248424E+002
  0
ARC
  8
MED-1
  6
CONTINUOUS
 62
40
 10
-3.9891854E+001
 20
2.698946E+001
 40
1.22722
 50
2.9252969E+002
 51
2.9350872E+002
  0
ARC
  8
MED-1
  6
CONTINUOUS
 62
40
 10
-3.9887867E+001
 20
2.6980377E+001
 40
1.2173006
 50
2.9350717E+002
 51
2.9449539E+002
  0
ARC
  8
MED-1
  6
CONTINUOUS
 62
40
 10
-3.9892536E+001
 20
2.698969E+001
 40
1.2277111
 50
2.9451348E+002
 51
2.9549395E+002
  0
ARC
  8
MED-1
  6
CONTINUOUS
 62
40
 10
-3.9889207E+001
 20
2.6981887E+001
 40
1.2192352
 50
2.9551056E+002
 51
2.965009E+002
  0
ARC
  8
MED-1
  6
CONTINUOUS
 62
40
 10
-3.9877647E+001
 20
2.6957932E+001
 40
1.1926387
 50
2.9651741E+002
 51
2.9753347E+002
  0
ARC
  8
MED-1
  6
CONTINUOUS
 62
40
 10
-3.9890838E+001
 20
2.6986329E+001
 40
1.223919
 50
2.9746652E+002
 51
2.9845499E+002
  0
ARC
  8
MED-1
  6
CONTINUOUS
 62
40
 10
-3.9930594E+001
 20
2.7058514E+001
 40
1.3063256
 50
2.984795E+002
 51
2.9940221E+002
  0
ARC
  8
MED-1
  6
CONTINUOUS
 62
40
 10
-3.9881987E+001
 20
2.6966142E+001
 40
1.2019925
 50
2.9954533E+002
 51
3.005675E+002
  0
ARC
  8
MED-1
  6
CONTINUOUS
 62
40
 10
-3.9795855E+001
 20
2.6818792E+001
 40
1.0313174
 50
3.0061046E+002
 51
3.0183443E+002
  0
ARC
  8
MED-1
  6
CONTINUOUS
 62
40
 10
-3.9921851E+001
 20
2.704171E+001
 40
1.2872044
 50
3.0136535E+002
 51
3.0228792E+002
  0
ARC
  8
MED-1
  6
CONTINUOUS
 62
40
 10
-4.1115315E+001
 20
2.8937703E+001
 40
3.5275486
 50
3.0222512E+002
 51
3.0252995E+002
  0
ARC
  8
MED-1
  6
CONTINUOUS
 62
40
 10
-3.9808446E+001
 20
2.6847172E+001
 40
1.0624782
 50
3.037341E+002
 51
3.0504502E+002
  0
ARC
  8
MED-1
  6
CONTINUOUS
 62
40
 10
-3.9749358E+001
 20
2.6765436E+001
 40
9.6163213E-001
 50
3.0495919E+002
 51
3.0720721E+002
  0
ARC
  8
MED-1
  6
CONTINUOUS
 62
40
 10
-4.0720019E+001
 20
2.8112353E+001
 40
2.6216747
 50
3.0630252E+002
 51
3.0738644E+002
  0
LINE
  8
MED-1
  6
CONTINUOUS
 62
40
 10
-3.912817E+001
 20
2.602928E+001
 11
-3.901113E+001
 21
2.611919E+001
  0
ARC
  8
MED-1
  6
CONTINUOUS
 62
40
 10
-3.6314213E+001
 20
2.2489696E+001
 40
4.52179
 50
1.2476158E+002
 51
1.2661441E+002
  0
ARC
  8
MED-1
  6
CONTINUOUS
 62
40
 10
-3.6399416E+001
 20
2.260085E+001
 40
4.3818995
 50
1.2277968E+002
 51
1.2467501E+002
  0
ARC
  8
MED-1
  6
CONTINUOUS
 62
40
 10
-3.6447488E+001
 20
2.2677637E+001
 40
4.2913134
 50
1.2087379E+002
 51
1.2279511E+002
  0
ARC
  8
MED-1
  6
CONTINUOUS
 62
40
 10
-3.646888E+001
 20
2.270557E+001
 40
4.2563626
 50
1.1889484E+002
 51
1.2081958E+002
  0
ARC
  8
MED-1
  6
CONTINUOUS
 62
40
 10
-3.6477238E+001
 20
2.2726249E+001
 40
4.2342209
 50
1.1700678E+002
 51
1.1893104E+002
  0
ARC
  8
MED-1
  6
CONTINUOUS
 62
40
 10
-3.6478651E+001
 20
2.2721207E+001
 40
4.2380728
 50
1.1504523E+002
 51
1.169588E+002
  0
ARC
  8
MED-1
  6
CONTINUOUS
 62
40
 10
-3.6496069E+001
 20
2.2759083E+001
 40
4.196385
 50
1.131201E+002
 51
1.1504871E+002
  0
ARC
  8
MED-1
  6
CONTINUOUS
 62
40
 10
-3.6524944E+001
 20
2.2819345E+001
 40
4.1296255
 50
1.1112132E+002
 51
1.1307995E+002
  0
ARC
  8
MED-1
  6
CONTINUOUS
 62
40
 10
-3.647077E+001
 20
2.2706469E+001
 40
4.254451
 50
1.093624E+002
 51
1.1125412E+002
  0
ARC
  8
MED-1
  6
CONTINUOUS
 62
40
 10
-3.6362625E+001
 20
2.2394864E+001
 40
4.5842867
 50
1.0760138E+002
 51
1.0934639E+002
  0
ARC
  8
MED-1
  6
CONTINUOUS
 62
40
 10
-3.649762E+001
 20
2.27506E+001
 40
4.2044368
 50
1.0537832E+002
 51
1.0731379E+002
  0
ARC
  8
MED-1
  6
CONTINUOUS
 62
40
 10
-3.667529E+001
 20
2.3372473E+001
 40
3.5577185
 50
1.0292874E+002
 51
1.0527537E+002
  0
ARC
  8
MED-1
  6
CONTINUOUS
 62
40
 10
-3.6410827E+001
 20
2.2540806E+001
 40
4.4280525
 50
1.0208281E+002
 51
1.0385629E+002
  0
ARC
  8
MED-1
  6
CONTINUOUS
 62
40
 10
-3.4702433E+001
 20
1.4668314E+001
 40
1.2483768E+001
 50
1.0161676E+002
 51
1.021867E+002
  0
ARC
  8
MED-1
  6
CONTINUOUS
 62
40
 10
-3.663702E+001
 20
2.3325844E+001
 40
3.6171989
 50
9.6661872E+001
 51
9.9214096E+001
  0
ARC
  8
MED-1
  6
CONTINUOUS
 62
40
 10
-3.6665964E+001
 20
2.3670595E+001
 40
3.2714371
 50
9.2458936E+001
 51
9.6858818E+001
  0
ARC
  8
MED-1
  6
CONTINUOUS
 62
40
 10
-3.6140364E+001
 20
1.7953463E+001
 40
9.0102017
 50
9.2133274E+001
 51
9.4238674E+001
  0
LINE
  8
MED-1
  6
CONTINUOUS
 62
40
 10
-3.647576E+001
 20
2.695742E+001
 11
-3.624685E+001
 21
2.695745E+001
  0
LINE
  8
MED-1
  6
CONTINUOUS
 62
40
 10
-3.624685E+001
 20
2.695745E+001
 11
-3.601798E+001
 21
2.695753E+001
  0
LINE
  8
MED-1
  6
CONTINUOUS
 62
40
 10
-3.601798E+001
 20
2.695753E+001
 11
-3.578921E+001
 21
2.695766E+001
  0
LINE
  8
MED-1
  6
CONTINUOUS
 62
40
 10
-3.578921E+001
 20
2.695766E+001
 11
-3.55602E+001
 21
2.695783E+001
  0
LINE
  8
MED-1
  6
CONTINUOUS
 62
40
 10
-3.55602E+001
 20
2.695783E+001
 11
-3.533085E+001
 21
2.695805E+001
  0
LINE
  8
MED-1
  6
CONTINUOUS
 62
40
 10
-3.533085E+001
 20
2.695805E+001
 11
-3.510243E+001
 21
2.695832E+001
  0
LINE
  8
MED-1
  6
CONTINUOUS
 62
40
 10
-3.510243E+001
 20
2.695832E+001
 11
-3.487537E+001
 21
2.695862E+001
  0
LINE
  8
MED-1
  6
CONTINUOUS
 62
40
 10
-3.487537E+001
 20
2.695862E+001
 11
-3.464466E+001
 21
2.695897E+001
  0
LINE
  8
MED-1
  6
CONTINUOUS
 62
40
 10
-3.464466E+001
 20
2.695897E+001
 11
-3.440856E+001
 21
2.695938E+001
  0
LINE
  8
MED-1
  6
CONTINUOUS
 62
40
 10
-3.440856E+001
 20
2.695938E+001
 11
-3.418689E+001
 21
2.695979E+001
  0
LINE
  8
MED-1
  6
CONTINUOUS
 62
40
 10
-3.418689E+001
 20
2.695979E+001
 11
-3.398649E+001
 21
2.696019E+001
  0
LINE
  8
MED-1
  6
CONTINUOUS
 62
40
 10
-3.398649E+001
 20
2.696019E+001
 11
-3.372912E+001
 21
2.696077E+001
  0
LINE
  8
MED-1
  6
CONTINUOUS
 62
40
 10
-3.372912E+001
 20
2.696077E+001
 11
-3.333272E+001
 21
2.696178E+001
  0
LINE
  8
MED-1
  6
CONTINUOUS
 62
40
 10
-3.333272E+001
 20
2.696178E+001
 11
-3.281359E+001
 21
2.696316E+001
  0
LINE
  8
MED-1
  6
CONTINUOUS
 62
40
 10
-3.949997E+001
 20
2.650024E+001
 11
-3.94796E+001
 21
2.647443E+001
  0
LINE
  8
MED-1
  6
CONTINUOUS
 62
40
 10
-3.94796E+001
 20
2.647443E+001
 11
-3.945731E+001
 21
2.644619E+001
  0
LINE
  8
MED-1
  6
CONTINUOUS
 62
40
 10
-3.945731E+001
 20
2.644619E+001
 11
-3.943315E+001
 21
2.641559E+001
  0
LINE
  8
MED-1
  6
CONTINUOUS
 62
40
 10
-3.943315E+001
 20
2.641559E+001
 11
-3.940637E+001
 21
2.638167E+001
  0
LINE
  8
MED-1
  6
CONTINUOUS
 62
40
 10
-3.940637E+001
 20
2.638167E+001
 11
-3.937663E+001
 21
2.6344E+001
  0
LINE
  8
MED-1
  6
CONTINUOUS
 62
40
 10
-3.937663E+001
 20
2.6344E+001
 11
-3.934751E+001
 21
2.630711E+001
  0
LINE
  8
MED-1
  6
CONTINUOUS
 62
40
 10
-3.934751E+001
 20
2.630711E+001
 11
-3.932017E+001
 21
2.627248E+001
  0
LINE
  8
MED-1
  6
CONTINUOUS
 62
40
 10
-3.932017E+001
 20
2.627248E+001
 11
-3.928116E+001
 21
2.622307E+001
  0
LINE
  8
MED-1
  6
CONTINUOUS
 62
40
 10
-3.928116E+001
 20
2.622307E+001
 11
-3.92162E+001
 21
2.614078E+001
  0
LINE
  8
MED-1
  6
CONTINUOUS
 62
40
 10
-3.92162E+001
 20
2.614078E+001
 11
-3.912817E+001
 21
2.602928E+001
  0
LINE
  8
MED-1
  6
CONTINUOUS
 62
40
 10
-3.647304E+001
 20
2.769567E+001
 11
-3.647576E+001
 21
2.695742E+001
  0
ARC
  8
MED-1
  6
CONTINUOUS
 62
40
 10
-3.647305E+001
 20
2.269565E+001
 40
5.0
 50
8.999989E+001
 51
1.2725694E+002
  0
LINE
  8
MED-1
  6
CONTINUOUS
 62
40
 10
-3.647304E+001
 20
2.769567E+001
 11
-3.183593E+001
 21
2.771249E+001
  0
LINE
  8
MED-1
  6
CONTINUOUS
 62
40
 10
1.4E+001
 20
2.3E+001
 11
1.4E+001
 21
2.52E+001
  0
LINE
  8
MED-1
  6
CONTINUOUS
 62
40
 10
1.4E+001
 20
2.08E+001
 11
1.4E+001
 21
2.3E+001
  0
LINE
  8
MED-1
  6
CONTINUOUS
 62
40
 10
-5.3
 20
2.3E+001
 11
-5.3
 21
1.905E+001
  0
LINE
  8
MED-1
  6
CONTINUOUS
 62
40
 10
-5.3
 20
2.695E+001
 11
-5.3
 21
2.3E+001
  0
LINE
  8
MED-1
  6
CONTINUOUS
 62
40
 10
1.400003E+001
 20
2.079999E+001
 11
1.369996E+001
 21
2.05E+001
  0
LINE
  8
MED-1
  6
CONTINUOUS
 62
40
 10
1.369996E+001
 20
2.3E+001
 11
1.369996E+001
 21
2.05E+001
  0
LINE
  8
MED-1
  6
CONTINUOUS
 62
40
 10
1.369996E+001
 20
2.549999E+001
 11
1.369996E+001
 21
2.3E+001
  0
LINE
  8
MED-1
  6
CONTINUOUS
 62
40
 10
1.369996E+001
 20
2.549999E+001
 11
1.400003E+001
 21
2.52E+001
  0
LINE
  8
MED-1
  6
CONTINUOUS
 62
40
 10
-5.00001
 20
2.3E+001
 11
-5.00001
 21
2.725001E+001
  0
LINE
  8
MED-1
  6
CONTINUOUS
 62
40
 10
-5.00001
 20
1.874998E+001
 11
-5.00001
 21
2.3E+001
  0
LINE
  8
MED-1
  6
CONTINUOUS
 62
40
 10
-5.00001
 20
2.725001E+001
 11
-1.99999
 21
2.725001E+001
  0
LINE
  8
MED-1
  6
CONTINUOUS
 62
40
 10
-1.99999
 20
1.874998E+001
 11
-5.00001
 21
1.874998E+001
  0
LINE
  8
MED-1
  6
CONTINUOUS
 62
40
 10
1.369996E+001
 20
2.05E+001
 11
-1.0E-005
 21
2.05E+001
  0
LINE
  8
MED-1
  6
CONTINUOUS
 62
40
 10
-1.0E-005
 20
2.549999E+001
 11
1.369996E+001
 21
2.549999E+001
  0
LINE
  8
MED-1
  6
CONTINUOUS
 62
40
 10
-5.00001
 20
1.874998E+001
 11
-5.01793
 21
1.87505E+001
  0
ARC
  8
MED-1
  6
CONTINUOUS
 62
40
 10
-5.0013833
 20
1.9030422E+001
 40
2.8041036E-001
 50
2.6288609E+002
 51
2.6661708E+002
  0
ARC
  8
MED-1
  6
CONTINUOUS
 62
40
 10
-4.9988784
 20
1.9054927E+001
 40
3.0503748E-001
 50
2.5947651E+002
 51
2.6298923E+002
  0
ARC
  8
MED-1
  6
CONTINUOUS
 62
40
 10
-4.9967401
 20
1.9066763E+001
 40
3.1706532E-001
 50
2.5604193E+002
 51
2.5948726E+002
  0
ARC
  8
MED-1
  6
CONTINUOUS
 62
40
 10
-4.9978191
 20
1.9056717E+001
 40
3.0705904E-001
 50
2.5216189E+002
 51
2.5578516E+002
  0
ARC
  8
MED-1
  6
CONTINUOUS
 62
40
 10
-4.9984952
 20
1.9054538E+001
 40
3.047772E-001
 50
2.4845281E+002
 51
2.5215739E+002
  0
ARC
  8
MED-1
  6
CONTINUOUS
 62
40
 10
-4.9976155
 20
1.905489E+001
 40
3.0542888E-001
 50
2.4457189E+002
 51
2.4832358E+002
  0
ARC
  8
MED-1
  6
CONTINUOUS
 62
40
 10
-4.997383
 20
1.9055617E+001
 40
3.061851E-001
 50
2.4080823E+002
 51
2.44591E+002
  0
ARC
  8
MED-1
  6
CONTINUOUS
 62
40
 10
-4.9977528
 20
1.905306E+001
 40
3.0377374E-001
 50
2.3678381E+002
 51
2.4063388E+002
  0
ARC
  8
MED-1
  6
CONTINUOUS
 62
40
 10
-4.9978795
 20
1.9053467E+001
 40
3.0404515E-001
 50
2.3297367E+002
 51
2.368458E+002
  0
ARC
  8
MED-1
  6
CONTINUOUS
 62
40
 10
-4.9971452
 20
1.9053276E+001
 40
3.0433578E-001
 50
2.2895445E+002
 51
2.3284168E+002
  0
ARC
  8
MED-1
  6
CONTINUOUS
 62
40
 10
-4.9985282
 20
1.9051876E+001
 40
3.0237185E-001
 50
2.2505287E+002
 51
2.289779E+002
  0
ARC
  8
MED-1
  6
CONTINUOUS
 62
40
 10
-5.0017395
 20
1.9047588E+001
 40
2.9706876E-001
 50
2.2090882E+002
 51
2.2490687E+002
  0
ARC
  8
MED-1
  6
CONTINUOUS
 62
40
 10
-4.998844
 20
1.9051627E+001
 40
3.0190478E-001
 50
2.1721574E+002
 51
2.2112838E+002
  0
ARC
  8
MED-1
  6
CONTINUOUS
 62
40
 10
-4.9871059
 20
1.9060196E+001
 40
3.1643519E-001
 50
2.1346611E+002
 51
2.1716585E+002
  0
ARC
  8
MED-1
  6
CONTINUOUS
 62
40
 10
-5.0030283
 20
1.9047169E+001
 40
2.9597588E-001
 50
2.090856E+002
 51
2.13062E+002
  0
ARC
  8
MED-1
  6
CONTINUOUS
 62
40
 10
-5.0337748
 20
1.9029458E+001
 40
2.604978E-001
 50
2.0440849E+002
 51
2.0896885E+002
  0
ARC
  8
MED-1
  6
CONTINUOUS
 62
40
 10
-4.9937925
 20
1.9056553E+001
 40
3.0821103E-001
 50
2.0230605E+002
 51
2.0592388E+002
  0
ARC
  8
MED-1
  6
CONTINUOUS
 62
40
 10
-4.711885
 20
1.9174874E+001
 40
6.1393744E-001
 50
2.0089688E+002
 51
2.0253636E+002
  0
ARC
  8
MED-1
  6
CONTINUOUS
 62
40
 10
-5.0327975
 20
1.9033479E+001
 40
2.6428833E-001
 50
1.9239051E+002
 51
1.970723E+002
  0
ARC
  8
MED-1
  6
CONTINUOUS
 62
40
 10
-5.060162
 20
1.902839E+001
 40
2.3647093E-001
 50
1.8481037E+002
 51
1.9260881E+002
  0
ARC
  8
MED-1
  6
CONTINUOUS
 62
40
 10
-4.7102045
 20
1.9088862E+001
 40
5.9107578E-001
 50
1.8377179E+002
 51
1.8780825E+002
  0
LINE
  8
MED-1
  6
CONTINUOUS
 62
40
 10
-5.3
 20
2.695001E+001
 11
-5.29948
 21
2.696794E+001
  0
ARC
  8
MED-1
  6
CONTINUOUS
 62
40
 10
-5.0196396
 20
2.6951554E+001
 40
2.8031978E-001
 50
1.7291684E+002
 51
1.7664884E+002
  0
ARC
  8
MED-1
  6
CONTINUOUS
 62
40
 10
-4.9953109
 20
2.6948896E+001
 40
3.0479065E-001
 50
1.6947134E+002
 51
1.7298505E+002
  0
ARC
  8
MED-1
  6
CONTINUOUS
 62
40
 10
-4.9833148
 20
2.6946759E+001
 40
3.1697531E-001
 50
1.6604144E+002
 51
1.6948775E+002
  0
ARC
  8
MED-1
  6
CONTINUOUS
 62
40
 10
-4.993361
 20
2.6948001E+001
 40
3.0692865E-001
 50
1.6218975E+002
 51
1.6581405E+002
  0
ARC
  8
MED-1
  6
CONTINUOUS
 62
40
 10
-4.9955416
 20
2.6948524E+001
 40
3.0469277E-001
 50
1.5845229E+002
 51
1.621579E+002
  0
ARC
  8
MED-1
  6
CONTINUOUS
 62
40
 10
-4.9953421
 20
2.6947796E+001
 40
3.0514626E-001
 50
1.5458622E+002
 51
1.5833891E+002
  0
ARC
  8
MED-1
  6
CONTINUOUS
 62
40
 10
-4.9943048
 20
2.6947262E+001
 40
3.0631231E-001
 50
1.5079557E+002
 51
1.545793E+002
  0
ARC
  8
MED-1
  6
CONTINUOUS
 62
40
 10
-4.9970047
 20
2.6947938E+001
 40
3.0362669E-001
 50
1.4680736E+002
 51
1.5065832E+002
  0
ARC
  8
MED-1
  6
CONTINUOUS
 62
40
 10
-4.9965895
 20
2.6947768E+001
 40
3.0406722E-001
 50
1.4295045E+002
 51
1.4682339E+002
  0
ARC
  8
MED-1
  6
CONTINUOUS
 62
40
 10
-4.9967723
 20
2.6947328E+001
 40
3.0418661E-001
 50
1.3897564E+002
 51
1.4286358E+002
  0
ARC
  8
MED-1
  6
CONTINUOUS
 62
40
 10
-4.9983114
 20
2.6948553E+001
 40
3.0222153E-001
 50
1.3503372E+002
 51
1.3895931E+002
  0
ARC
  8
MED-1
  6
CONTINUOUS
 62
40
 10
-5.0022983
 20
2.6951755E+001
 40
2.9713827E-001
 50
1.3092888E+002
 51
1.349273E+002
  0
ARC
  8
MED-1
  6
CONTINUOUS
 62
40
 10
-4.9983897
 20
2.6948712E+001
 40
3.0199921E-001
 50
1.2719806E+002
 51
1.3111096E+002
  0
ARC
  8
MED-1
  6
CONTINUOUS
 62
40
 10
-4.9898117
 20
2.6937117E+001
 40
3.164215E-001
 50
1.2346603E+002
 51
1.2716593E+002
  0
ARC
  8
MED-1
  6
CONTINUOUS
 62
40
 10
-5.0028376
 20
2.6953174E+001
 40
2.9585019E-001
 50
1.1909999E+002
 51
1.2307642E+002
  0
ARC
  8
MED-1
  6
CONTINUOUS
 62
40
 10
-5.0205428
 20
2.6983641E+001
 40
2.6061959E-001
 50
1.1439616E+002
 51
1.1895635E+002
  0
ARC
  8
MED-1
  6
CONTINUOUS
 62
40
 10
-4.9934373
 20
2.694377E+001
 40
3.0823548E-001
 50
1.1230619E+002
 51
1.1592374E+002
  0
ARC
  8
MED-1
  6
CONTINUOUS
 62
40
 10
-4.875103
 20
2.6661826E+001
 40
6.1400079E-001
 50
1.1089696E+002
 51
1.1253627E+002
  0
ARC
  8
MED-1
  6
CONTINUOUS
 62
40
 10
-5.0165073
 20
2.6982643E+001
 40
2.6443979E-001
 50
1.0238406E+002
 51
1.0706526E+002
  0
ARC
  8
MED-1
  6
CONTINUOUS
 62
40
 10
-5.0215935
 20
2.701012E+001
 40
2.3651374E-001
 50
9.4811077E+001
 51
1.0260811E+002
  0
ARC
  8
MED-1
  6
CONTINUOUS
 62
40
 10
-4.9609722
 20
2.6660078E+001
 40
5.9122232E-001
 50
9.3785931E+001
 51
9.7821489E+001
  0
LINE
  8
104
  6
CONTINUOUS
 62
1
 10
1.4E+001
 20
2.520003E+001
 11
0.0
 21
2.520003E+001
  0
LINE
  8
104
  6
CONTINUOUS
 62
1
 10
1.4E+001
 20
2.079996E+001
 11
0.0
 21
2.079996E+001
  0
ARC
  8
MED-1
  6
CONTINUOUS
 62
40
 10
-1.2E+001
 20
1.958334E+001
 40
6.0833333
 50
2.7E+002
 51
3.1111209E+002
  0
ARC
  8
MED-1
  6
CONTINUOUS
 62
40
 10
-1.2E+001
 20
1.958334E+001
 40
6.0833332
 50
2.2888791E+002
 51
2.7E+002
  0
LINE
  8
106
  6
CENTERLINE
 62
1
 10
1.845441E+001
 20
2.3E+001
 11
-5.8959662E+001
 21
2.3E+001
  0
POINT
  8
Drafting_Hidden_Entities
  6
CONTINUOUS
 62
1
 10
0.0
 20
0.0
  0
ENDBLK
  0
BLOCK
  2
2
 10
0.0
 20
0.0
 70
0
  0
CIRCLE
  8
105
  6
HIDDEN
 62
1
 10
1.2199947E+002
 20
-1.0491648E+001
 40
4.75
  0
CIRCLE
  8
105
  6
HIDDEN
 62
1
 10
7.199947E+001
 20
-1.0491648E+001
 40
2.5
  0
LINE
  8
106
  6
CENTERLINE
 62
1
 10
1.2199947E+002
 20
-6.1077648E+001
 11
1.2199947E+002
 21
-5.0044648E+001
  0
LINE
  8
106
  6
CENTERLINE
 62
1
 10
1.2800197E+002
 20
-1.0491648E+001
 11
1.1623197E+002
 21
-1.0491648E+001
  0
LINE
  8
106
  6
CENTERLINE
 62
1
 10
7.800197E+001
 20
-1.0491648E+001
 11
6.623197E+001
 21
-1.0491648E+001
  0
LINE
  8
106
  6
CENTERLINE
 62
1
 10
2.800197E+001
 20
-1.0491648E+001
 11
1.623197E+001
 21
-1.0491648E+001
  0
LINE
  8
106
  6
CENTERLINE
 62
1
 10
2.800197E+001
 20
-5.5491648E+001
 11
1.623197E+001
 21
-5.5491648E+001
  0
LINE
  8
106
  6
CENTERLINE
 62
1
 10
7.800197E+001
 20
-5.5491648E+001
 11
6.623197E+001
 21
-5.5491648E+001
  0
LINE
  8
106
  6
CENTERLINE
 62
1
 10
1.2800197E+002
 20
-5.5491648E+001
 11
1.1623197E+002
 21
-5.5491648E+001
  0
LINE
  8
106
  6
CENTERLINE
 62
1
 10
7.199947E+001
 20
-6.1077648E+001
 11
7.199947E+001
 21
-5.0044648E+001
  0
LINE
  8
106
  6
CENTERLINE
 62
1
 10
2.199947E+001
 20
-6.1077648E+001
 11
2.199947E+001
 21
-5.0044648E+001
  0
LINE
  8
106
  6
CENTERLINE
 62
1
 10
2.199947E+001
 20
-1.6077648E+001
 11
2.199947E+001
 21
-5.0446478
  0
LINE
  8
106
  6
CENTERLINE
 62
1
 10
7.199947E+001
 20
-1.6077648E+001
 11
7.199947E+001
 21
-5.0446478
  0
LINE
  8
106
  6
CENTERLINE
 62
1
 10
1.2199947E+002
 20
-1.6077648E+001
 11
1.2199947E+002
 21
-5.0446478
  0
CIRCLE
  8
105
  6
HIDDEN
 62
1
 10
7.199947E+001
 20
-5.5491648E+001
 40
2.5
  0
CIRCLE
  8
105
  6
HIDDEN
 62
1
 10
1.2199947E+002
 20
-5.5491648E+001
 40
4.75
  0
CIRCLE
  8
105
  6
HIDDEN
 62
1
 10
7.199947E+001
 20
-5.5491648E+001
 40
4.75
  0
CIRCLE
  8
105
  6
HIDDEN
 62
1
 10
7.199947E+001
 20
-1.0491648E+001
 40
4.75
  0
CIRCLE
  8
105
  6
HIDDEN
 62
1
 10
2.199947E+001
 20
-1.0491648E+001
 40
4.75
  0
CIRCLE
  8
105
  6
HIDDEN
 62
1
 10
2.199947E+001
 20
-5.5491648E+001
 40
4.75
  0
LINE
  8
106
  6
CENTERLINE
 62
1
 10
-5.3E-004
 20
-6.8741648E+001
 11
-5.3E-004
 21
1.6508352E+001
  0
LINE
  8
104
  6
CONTINUOUS
 62
40
 10
-7.650153E+001
 20
-2.9916477
 11
-7.650153E+001
 21
-6.2991648E+001
  0
LINE
  8
104
  6
CONTINUOUS
 62
40
 10
-7.650153E+001
 20
-6.2991648E+001
 11
1.5649947E+002
 21
-6.2991648E+001
  0
LINE
  8
104
  6
CONTINUOUS
 62
40
 10
1.5649947E+002
 20
-6.2991648E+001
 11
1.5649947E+002
 21
-2.9916477
  0
LINE
  8
104
  6
CONTINUOUS
 62
40
 10
1.5649947E+002
 20
-2.9916477
 11
-7.650153E+001
 21
-2.9916477
  0
LINE
  8
104
  6
CONTINUOUS
 62
40
 10
-7.650153E+001
 20
-5.2916478
 11
1.5649947E+002
 21
-5.2916478
  0
LINE
  8
104
  6
CONTINUOUS
 62
40
 10
-7.650153E+001
 20
-6.0691648E+001
 11
1.5649947E+002
 21
-6.0691648E+001
  0
LINE
  8
104
  6
CONTINUOUS
 62
40
 10
-1.494303E+001
 20
-6.2991648E+001
 11
-8.39803
 21
-6.7241648E+001
  0
LINE
  8
104
  6
CONTINUOUS
 62
40
 10
-8.39803
 20
-6.7241648E+001
 11
8.39447
 21
-6.7241648E+001
  0
LINE
  8
104
  6
CONTINUOUS
 62
40
 10
8.39447
 20
-6.7241648E+001
 11
1.493947E+001
 21
-6.2991648E+001
  0
LINE
  8
104
  6
CONTINUOUS
 62
40
 10
1.493947E+001
 20
-6.2991648E+001
 11
-1.494303E+001
 21
-6.2991648E+001
  0
LINE
  8
106
  6
CENTERLINE
 62
1
 10
7.999947E+001
 20
2.7508352E+001
 11
6.824947E+001
 21
2.7508352E+001
  0
LINE
  8
MED-1
  6
CONTINUOUS
 62
40
 10
1.1E+001
 20
-2.9916477
 11
1.1E+001
 21
1.1508362E+001
  0
LINE
  8
MED-1
  6
CONTINUOUS
 62
40
 10
-1.083607E+001
 20
1.1508352E+001
 11
-1.1E+001
 21
1.1508352E+001
  0
LINE
  8
MED-1
  6
CONTINUOUS
 62
40
 10
-1.059235E+001
 20
1.1508362E+001
 11
-1.083607E+001
 21
1.1508352E+001
  0
LINE
  8
MED-1
  6
CONTINUOUS
 62
40
 10
-1.1E+001
 20
1.1508352E+001
 11
-1.1E+001
 21
-2.9916477
  0
LINE
  8
MED-1
  6
CONTINUOUS
 62
40
 10
-1.059235E+001
 20
1.7508352E+001
 11
-1.059235E+001
 21
1.1508362E+001
  0
LINE
  8
MED-1
  6
CONTINUOUS
 62
40
 10
5.358545E+001
 20
1.7508352E+001
 11
5.358545E+001
 21
1.1508352E+001
  0
LINE
  8
MED-1
  6
CONTINUOUS
 62
40
 10
-1.059235E+001
 20
1.7508352E+001
 11
3.191967E+001
 21
1.7508352E+001
  0
LINE
  8
MED-1
  6
CONTINUOUS
 62
40
 10
3.191967E+001
 20
1.1508352E+001
 11
-1.059235E+001
 21
1.1508362E+001
  0
LINE
  8
MED-1
  6
CONTINUOUS
 62
40
 10
3.191967E+001
 20
1.1508352E+001
 11
3.191967E+001
 21
1.7508352E+001
  0
LINE
  8
MED-1
  6
CONTINUOUS
 62
40
 10
3.191967E+001
 20
1.7508352E+001
 11
3.321269E+001
 21
1.7508352E+001
  0
LINE
  8
MED-1
  6
CONTINUOUS
 62
40
 10
3.321269E+001
 20
1.1508352E+001
 11
3.191967E+001
 21
1.1508352E+001
  0
LINE
  8
MED-1
  6
CONTINUOUS
 62
40
 10
3.321269E+001
 20
1.7508352E+001
 11
5.358545E+001
 21
1.7508352E+001
  0
LINE
  8
MED-1
  6
CONTINUOUS
 62
40
 10
5.358545E+001
 20
1.1508352E+001
 11
3.321269E+001
 21
1.1508352E+001
  0
LINE
  8
MED-1
  6
CONTINUOUS
 62
40
 10
3.799946E+001
 20
2.0508362E+001
 11
3.799946E+001
 21
1.7508332E+001
  0
LINE
  8
MED-1
  6
CONTINUOUS
 62
40
 10
4.799945E+001
 20
1.7508332E+001
 11
4.799945E+001
 21
2.0508362E+001
  0
ARC
  8
MED-1
  6
CONTINUOUS
 62
40
 10
4.299947E+001
 20
2.5650492E+001
 40
1.5E+001
 50
2.7E+002
 51
2.8947122E+002
  0
ARC
  8
MED-1
  6
CONTINUOUS
 62
40
 10
4.299947E+001
 20
2.5650492E+001
 40
1.5E+001
 50
2.5052878E+002
 51
2.7E+002
  0
LINE
  8
MED-1
  6
CONTINUOUS
 62
40
 10
5.299947E+001
 20
3.2208352E+001
 11
5.299947E+001
 21
2.6508382E+001
  0
LINE
  8
MED-1
  6
CONTINUOUS
 62
40
 10
3.299947E+001
 20
2.6408352E+001
 11
3.299947E+001
 21
3.2208352E+001
  0
ARC
  8
MED-1
  6
CONTINUOUS
 62
40
 10
3.529947E+001
 20
3.2208352E+001
 40
2.3
 50
9.0E+001
 51
1.8E+002
  0
ARC
  8
MED-1
  6
CONTINUOUS
 62
40
 10
5.069947E+001
 20
3.2208352E+001
 40
2.3000001
 50
0.0
 51
9.0E+001
  0
LINE
  8
MED-1
  6
CONTINUOUS
 62
40
 10
3.529947E+001
 20
3.4508352E+001
 11
5.069947E+001
 21
3.4508352E+001
  0
LINE
  8
MED-1
  6
CONTINUOUS
 62
40
 10
3.299947E+001
 20
2.6408352E+001
 11
5.299947E+001
 21
2.6408352E+001
  0
LINE
  8
MED-1
  6
CONTINUOUS
 62
40
 10
5.299947E+001
 20
3.2208352E+001
 11
3.299947E+001
 21
3.2208352E+001
  0
LINE
  8
MED-1
  6
CONTINUOUS
 62
40
 10
5.299947E+001
 20
2.6508382E+001
 11
3.299947E+001
 21
2.6508352E+001
  0
LINE
  8
MED-1
  6
CONTINUOUS
 62
40
 10
3.399947E+001
 20
2.0508352E+001
 11
5.199947E+001
 21
2.0508352E+001
  0
LINE
  8
MED-1
  6
CONTINUOUS
 62
40
 10
4.886377E+001
 20
3.4608352E+001
 11
3.713517E+001
 21
3.4608352E+001
  0
LINE
  8
MED-1
  6
CONTINUOUS
 62
40
 10
5.299947E+001
 20
2.1508352E+001
 11
5.199947E+001
 21
2.0508352E+001
  0
LINE
  8
MED-1
  6
CONTINUOUS
 62
40
 10
3.299949E+001
 20
2.1508352E+001
 11
3.399947E+001
 21
2.0508352E+001
  0
LINE
  8
MED-1
  6
CONTINUOUS
 62
40
 10
5.299947E+001
 20
2.1508352E+001
 11
3.299949E+001
 21
2.1508352E+001
  0
LINE
  8
MED-1
  6
CONTINUOUS
 62
40
 10
5.299947E+001
 20
2.6508382E+001
 11
5.299947E+001
 21
2.1508352E+001
  0
LINE
  8
MED-1
  6
CONTINUOUS
 62
40
 10
3.299947E+001
 20
2.6408352E+001
 11
3.299949E+001
 21
2.1508352E+001
  0
ARC
  8
MED-1
  6
CONTINUOUS
 62
40
 10
4.299947E+001
 20
2.6508352E+001
 40
1.0E+001
 50
5.4095932E+001
 51
9.0E+001
  0
ARC
  8
MED-1
  6
CONTINUOUS
 62
40
 10
4.299947E+001
 20
2.6508352E+001
 40
1.0E+001
 50
9.0E+001
 51
1.2590407E+002
  0
LINE
  8
MED-1
  6
CONTINUOUS
 62
40
 10
3.899945E+001
 20
3.4608332E+001
 11
3.899947E+001
 21
3.4508352E+001
  0
LINE
  8
MED-1
  6
CONTINUOUS
 62
40
 10
4.699946E+001
 20
3.4608332E+001
 11
4.699947E+001
 21
3.4508352E+001
  0
LINE
  8
MED-1
  6
CONTINUOUS
 62
40
 10
7.999947E+001
 20
2.1508352E+001
 11
7.999947E+001
 21
1.9508352E+001
  0
LINE
  8
MED-1
  6
CONTINUOUS
 62
40
 10
7.999947E+001
 20
3.5508352E+001
 11
7.999947E+001
 21
3.3508352E+001
  0
LINE
  8
MED-1
  6
CONTINUOUS
 62
40
 10
7.999947E+001
 20
3.3508352E+001
 11
7.999947E+001
 21
2.1508352E+001
  0
LINE
  8
MED-1
  6
CONTINUOUS
 62
40
 10
2.199947E+001
 20
1.9508352E+001
 11
2.199947E+001
 21
2.1508352E+001
  0
LINE
  8
MED-1
  6
CONTINUOUS
 62
40
 10
2.199947E+001
 20
2.1508352E+001
 11
2.199947E+001
 21
3.3508352E+001
  0
LINE
  8
MED-1
  6
CONTINUOUS
 62
40
 10
2.199947E+001
 20
3.3508352E+001
 11
2.199947E+001
 21
3.5508352E+001
  0
LINE
  8
MED-1
  6
CONTINUOUS
 62
40
 10
7.903098E+001
 20
3.5508352E+001
 11
7.999947E+001
 21
3.5508352E+001
  0
LINE
  8
MED-1
  6
CONTINUOUS
 62
40
 10
2.199947E+001
 20
3.5508352E+001
 11
2.261716E+001
 21
3.5508352E+001
  0
LINE
  8
MED-1
  6
CONTINUOUS
 62
40
 10
2.261716E+001
 20
3.5508352E+001
 11
3.858794E+001
 21
3.5508352E+001
  0
LINE
  8
MED-1
  6
CONTINUOUS
 62
40
 10
3.858794E+001
 20
3.5508352E+001
 11
3.864057E+001
 21
3.5508352E+001
  0
LINE
  8
MED-1
  6
CONTINUOUS
 62
40
 10
4.735837E+001
 20
3.5508352E+001
 11
7.903098E+001
 21
3.5508352E+001
  0
LINE
  8
MED-1
  6
CONTINUOUS
 62
40
 10
7.999947E+001
 20
1.9508352E+001
 11
7.903098E+001
 21
1.9508352E+001
  0
LINE
  8
MED-1
  6
CONTINUOUS
 62
40
 10
7.903098E+001
 20
1.9508352E+001
 11
4.799947E+001
 21
1.9508352E+001
  0
LINE
  8
MED-1
  6
CONTINUOUS
 62
40
 10
3.799947E+001
 20
1.9508352E+001
 11
2.261716E+001
 21
1.9508352E+001
  0
LINE
  8
MED-1
  6
CONTINUOUS
 62
40
 10
2.261716E+001
 20
1.9508352E+001
 11
2.199947E+001
 21
1.9508352E+001
  0
LINE
  8
MED-1
  6
CONTINUOUS
 62
40
 10
7.903098E+001
 20
2.1508352E+001
 11
7.999947E+001
 21
2.1508352E+001
  0
LINE
  8
MED-1
  6
CONTINUOUS
 62
40
 10
2.199947E+001
 20
2.1508352E+001
 11
2.261716E+001
 21
2.1508352E+001
  0
LINE
  8
MED-1
  6
CONTINUOUS
 62
40
 10
2.261716E+001
 20
2.1508352E+001
 11
3.299949E+001
 21
2.1508352E+001
  0
LINE
  8
MED-1
  6
CONTINUOUS
 62
40
 10
5.299947E+001
 20
2.1508352E+001
 11
7.903098E+001
 21
2.1508352E+001
  0
LINE
  8
MED-1
  6
CONTINUOUS
 62
40
 10
7.999947E+001
 20
3.3508352E+001
 11
7.903098E+001
 21
3.3508352E+001
  0
LINE
  8
MED-1
  6
CONTINUOUS
 62
40
 10
7.903098E+001
 20
3.3508352E+001
 11
5.254018E+001
 21
3.3508332E+001
  0
LINE
  8
MED-1
  6
CONTINUOUS
 62
40
 10
3.345873E+001
 20
3.3508332E+001
 11
2.261716E+001
 21
3.3508352E+001
  0
LINE
  8
MED-1
  6
CONTINUOUS
 62
40
 10
2.261716E+001
 20
3.3508352E+001
 11
2.199947E+001
 21
3.3508352E+001
  0
LINE
  8
MED-1
  6
CONTINUOUS
 62
40
 10
6.449947E+001
 20
3.0508352E+001
 11
7.048907E+001
 21
3.0508352E+001
  0
ARC
  8
MED-1
  6
CONTINUOUS
 62
40
 10
6.449947E+001
 20
2.7508352E+001
 40
3.0000001
 50
9.0E+001
 51
2.7E+002
  0
LINE
  8
MED-1
  6
CONTINUOUS
 62
40
 10
7.048907E+001
 20
2.4508352E+001
 11
6.449947E+001
 21
2.4508352E+001
  0
ARC
  8
MED-1
  6
CONTINUOUS
 62
40
 10
4.299947E+001
 20
3.0925022E+001
 40
6.0833333
 50
5.6898288E+001
 51
9.0E+001
  0
ARC
  8
MED-1
  6
CONTINUOUS
 62
40
 10
4.299947E+001
 20
3.0925022E+001
 40
6.0833333
 50
9.0E+001
 51
1.2310337E+002
  0
CIRCLE
  8
MED-1
  6
CONTINUOUS
 62
40
 10
2.849947E+001
 20
2.7508352E+001
 40
4.25
  0
LINE
  8
MED-1
  6
CONTINUOUS
 62
40
 10
2.924949E+001
 20
2.9758322E+001
 11
2.924949E+001
 21
2.8258332E+001
  0
LINE
  8
MED-1
  6
CONTINUOUS
 62
40
 10
2.774944E+001
 20
2.9758322E+001
 11
2.924949E+001
 21
2.9758322E+001
  0
LINE
  8
MED-1
  6
CONTINUOUS
 62
40
 10
2.774944E+001
 20
2.8258332E+001
 11
2.774944E+001
 21
2.9758322E+001
  0
LINE
  8
MED-1
  6
CONTINUOUS
 62
40
 10
2.624945E+001
 20
2.8258332E+001
 11
2.774944E+001
 21
2.8258332E+001
  0
LINE
  8
MED-1
  6
CONTINUOUS
 62
40
 10
2.624945E+001
 20
2.6758342E+001
 11
2.624945E+001
 21
2.8258332E+001
  0
LINE
  8
MED-1
  6
CONTINUOUS
 62
40
 10
2.774944E+001
 20
2.6758342E+001
 11
2.624945E+001
 21
2.6758342E+001
  0
LINE
  8
MED-1
  6
CONTINUOUS
 62
40
 10
2.774944E+001
 20
2.5258352E+001
 11
2.774944E+001
 21
2.6758342E+001
  0
LINE
  8
MED-1
  6
CONTINUOUS
 62
40
 10
2.924949E+001
 20
2.5258352E+001
 11
2.774944E+001
 21
2.5258352E+001
  0
LINE
  8
MED-1
  6
CONTINUOUS
 62
40
 10
2.924949E+001
 20
2.6758342E+001
 11
2.924949E+001
 21
2.5258352E+001
  0
LINE
  8
MED-1
  6
CONTINUOUS
 62
40
 10
3.074948E+001
 20
2.6758342E+001
 11
2.924949E+001
 21
2.6758342E+001
  0
LINE
  8
MED-1
  6
CONTINUOUS
 62
40
 10
3.074948E+001
 20
2.8258332E+001
 11
3.074948E+001
 21
2.6758342E+001
  0
LINE
  8
MED-1
  6
CONTINUOUS
 62
40
 10
2.924949E+001
 20
2.8258332E+001
 11
3.074948E+001
 21
2.8258332E+001
  0
CIRCLE
  8
MED-1
  6
CONTINUOUS
 62
40
 10
7.349947E+001
 20
2.7508352E+001
 40
4.25
  0
LINE
  8
MED-1
  6
CONTINUOUS
 62
40
 10
7.424947E+001
 20
2.9758322E+001
 11
7.424947E+001
 21
2.8258332E+001
  0
LINE
  8
MED-1
  6
CONTINUOUS
 62
40
 10
7.274948E+001
 20
2.9758322E+001
 11
7.424947E+001
 21
2.9758322E+001
  0
LINE
  8
MED-1
  6
CONTINUOUS
 62
40
 10
7.274948E+001
 20
2.8258332E+001
 11
7.274948E+001
 21
2.9758322E+001
  0
LINE
  8
MED-1
  6
CONTINUOUS
 62
40
 10
7.124949E+001
 20
2.8258332E+001
 11
7.274948E+001
 21
2.8258332E+001
  0
LINE
  8
MED-1
  6
CONTINUOUS
 62
40
 10
7.124949E+001
 20
2.6758342E+001
 11
7.124949E+001
 21
2.8258332E+001
  0
LINE
  8
MED-1
  6
CONTINUOUS
 62
40
 10
7.274948E+001
 20
2.6758342E+001
 11
7.124949E+001
 21
2.6758342E+001
  0
LINE
  8
MED-1
  6
CONTINUOUS
 62
40
 10
7.274948E+001
 20
2.5258352E+001
 11
7.274948E+001
 21
2.6758342E+001
  0
LINE
  8
MED-1
  6
CONTINUOUS
 62
40
 10
7.424947E+001
 20
2.5258352E+001
 11
7.274948E+001
 21
2.5258352E+001
  0
LINE
  8
MED-1
  6
CONTINUOUS
 62
40
 10
7.424947E+001
 20
2.6758342E+001
 11
7.424947E+001
 21
2.5258352E+001
  0
LINE
  8
MED-1
  6
CONTINUOUS
 62
40
 10
7.574946E+001
 20
2.6758342E+001
 11
7.424947E+001
 21
2.6758342E+001
  0
LINE
  8
MED-1
  6
CONTINUOUS
 62
40
 10
7.574946E+001
 20
2.8258332E+001
 11
7.574946E+001
 21
2.6758342E+001
  0
LINE
  8
MED-1
  6
CONTINUOUS
 62
40
 10
7.424947E+001
 20
2.8258332E+001
 11
7.574946E+001
 21
2.8258332E+001
  0
LINE
  8
106
  6
CENTERLINE
 62
1
 10
7.874947E+001
 20
2.7508352E+001
 11
6.035848E+001
 21
2.7508352E+001
  0
LINE
  8
106
  6
CENTERLINE
 62
1
 10
7.349947E+001
 20
2.2258352E+001
 11
7.349947E+001
 21
3.2758352E+001
  0
LINE
  8
106
  6
CENTERLINE
 62
1
 10
3.374947E+001
 20
2.7508352E+001
 11
2.324947E+001
 21
2.7508352E+001
  0
LINE
  8
106
  6
CENTERLINE
 62
1
 10
2.849947E+001
 20
2.2258352E+001
 11
2.849947E+001
 21
3.2758352E+001
  0
LINE
  8
3
  6
CENTERLINE
 62
1
 10
4.299947E+001
 20
3.9736984E+001
 11
4.299947E+001
 21
8.0303203
  0
LINE
  8
3
  6
CENTERLINE
 62
1
 10
0.0
 20
-5.7389492E+001
 11
0.0
 21
1.9058996E+001
  0
POINT
  8
Drafting_Hidden_Entities
  6
CONTINUOUS
 62
1
 10
0.0
 20
0.0
  0
ENDBLK
  0
BLOCK
  2
2NEW00
 10
0.0
 20
0.0
 70
0
  0
LINE
  8
106
  6
CENTERLINE
 62
1
 10
0.0
 20
-2.3
 11
0.0
 21
2.2853061E+001
  0
LINE
  8
104
  6
CONTINUOUS
 62
40
 10
-7.6501E+001
 20
0.0
 11
-7.6501E+001
 21
-6.0E+001
  0
LINE
  8
104
  6
CONTINUOUS
 62
40
 10
-7.6501E+001
 20
-6.0E+001
 11
1.565E+002
 21
-6.0E+001
  0
LINE
  8
104
  6
CONTINUOUS
 62
40
 10
1.565E+002
 20
-6.0E+001
 11
1.565E+002
 21
0.0
  0
LINE
  8
104
  6
CONTINUOUS
 62
40
 10
1.565E+002
 20
0.0
 11
-7.6501E+001
 21
0.0
  0
LINE
  8
104
  6
CONTINUOUS
 62
40
 10
-7.6501E+001
 20
-2.3
 11
1.565E+002
 21
-2.3
  0
LINE
  8
104
  6
CONTINUOUS
 62
40
 10
-7.6501E+001
 20
-5.77E+001
 11
1.565E+002
 21
-5.77E+001
  0
LINE
  8
104
  6
CONTINUOUS
 62
40
 10
-1.49425E+001
 20
-6.0E+001
 11
-8.3975
 21
-6.425E+001
  0
LINE
  8
104
  6
CONTINUOUS
 62
40
 10
-8.3975
 20
-6.425E+001
 11
8.395
 21
-6.425E+001
  0
LINE
  8
104
  6
CONTINUOUS
 62
40
 10
8.395
 20
-6.425E+001
 11
1.494E+001
 21
-6.0E+001
  0
LINE
  8
104
  6
CONTINUOUS
 62
40
 10
1.494E+001
 20
-6.0E+001
 11
-1.49425E+001
 21
-6.0E+001
  0
LINE
  8
106
  6
CENTERLINE
 62
1
 10
8.0E+001
 20
2.95E+001
 11
6.825E+001
 21
2.95E+001
  0
LINE
  8
MED-1
  6
CONTINUOUS
 62
40
 10
1.100053E+001
 20
0.0
 11
1.100053E+001
 21
1.450001E+001
  0
LINE
  8
MED-1
  6
CONTINUOUS
 62
40
 10
-1.083554E+001
 20
1.45E+001
 11
-1.099947E+001
 21
1.45E+001
  0
LINE
  8
MED-1
  6
CONTINUOUS
 62
40
 10
-1.059182E+001
 20
1.450001E+001
 11
-1.083554E+001
 21
1.45E+001
  0
LINE
  8
MED-1
  6
CONTINUOUS
 62
40
 10
-1.099947E+001
 20
1.45E+001
 11
-1.099947E+001
 21
0.0
  0
LINE
  8
MED-1
  6
CONTINUOUS
 62
40
 10
-1.059182E+001
 20
2.05E+001
 11
-1.059182E+001
 21
1.450001E+001
  0
LINE
  8
MED-1
  6
CONTINUOUS
 62
40
 10
5.358598E+001
 20
2.05E+001
 11
5.358598E+001
 21
1.45E+001
  0
LINE
  8
MED-1
  6
CONTINUOUS
 62
40
 10
-1.059182E+001
 20
2.05E+001
 11
3.19202E+001
 21
2.05E+001
  0
LINE
  8
MED-1
  6
CONTINUOUS
 62
40
 10
3.19202E+001
 20
1.45E+001
 11
-1.059182E+001
 21
1.450001E+001
  0
LINE
  8
MED-1
  6
CONTINUOUS
 62
40
 10
3.19202E+001
 20
1.45E+001
 11
3.19202E+001
 21
2.05E+001
  0
LINE
  8
MED-1
  6
CONTINUOUS
 62
40
 10
3.19202E+001
 20
2.05E+001
 11
3.321322E+001
 21
2.05E+001
  0
LINE
  8
MED-1
  6
CONTINUOUS
 62
40
 10
3.321322E+001
 20
1.45E+001
 11
3.19202E+001
 21
1.45E+001
  0
LINE
  8
MED-1
  6
CONTINUOUS
 62
40
 10
3.321322E+001
 20
2.05E+001
 11
5.358598E+001
 21
2.05E+001
  0
LINE
  8
MED-1
  6
CONTINUOUS
 62
40
 10
5.358598E+001
 20
1.45E+001
 11
3.321322E+001
 21
1.45E+001
  0
LINE
  8
MED-1
  6
CONTINUOUS
 62
40
 10
3.799999E+001
 20
2.350001E+001
 11
3.799999E+001
 21
2.049998E+001
  0
LINE
  8
MED-1
  6
CONTINUOUS
 62
40
 10
4.799998E+001
 20
2.049998E+001
 11
4.799998E+001
 21
2.350001E+001
  0
ARC
  8
MED-1
  6
CONTINUOUS
 62
40
 10
4.3E+001
 20
2.864214E+001
 40
1.5E+001
 50
2.7E+002
 51
2.8947122E+002
  0
ARC
  8
MED-1
  6
CONTINUOUS
 62
40
 10
4.3E+001
 20
2.864214E+001
 40
1.5E+001
 50
2.5052878E+002
 51
2.7E+002
  0
LINE
  8
MED-1
  6
CONTINUOUS
 62
40
 10
5.3E+001
 20
3.52E+001
 11
5.3E+001
 21
2.950003E+001
  0
LINE
  8
MED-1
  6
CONTINUOUS
 62
40
 10
3.3E+001
 20
2.94E+001
 11
3.3E+001
 21
3.52E+001
  0
ARC
  8
MED-1
  6
CONTINUOUS
 62
40
 10
3.53E+001
 20
3.52E+001
 40
2.3
 50
9.0E+001
 51
1.8E+002
  0
ARC
  8
MED-1
  6
CONTINUOUS
 62
40
 10
5.07E+001
 20
3.52E+001
 40
2.3000001
 50
0.0
 51
9.0E+001
  0
LINE
  8
MED-1
  6
CONTINUOUS
 62
40
 10
3.53E+001
 20
3.75E+001
 11
5.07E+001
 21
3.75E+001
  0
LINE
  8
MED-1
  6
CONTINUOUS
 62
40
 10
3.3E+001
 20
2.94E+001
 11
5.3E+001
 21
2.94E+001
  0
LINE
  8
MED-1
  6
CONTINUOUS
 62
40
 10
5.3E+001
 20
3.52E+001
 11
3.3E+001
 21
3.52E+001
  0
LINE
  8
MED-1
  6
CONTINUOUS
 62
40
 10
5.3E+001
 20
2.950003E+001
 11
3.3E+001
 21
2.95E+001
  0
LINE
  8
MED-1
  6
CONTINUOUS
 62
40
 10
3.4E+001
 20
2.35E+001
 11
5.2E+001
 21
2.35E+001
  0
LINE
  8
MED-1
  6
CONTINUOUS
 62
40
 10
4.88643E+001
 20
3.76E+001
 11
3.71357E+001
 21
3.76E+001
  0
LINE
  8
MED-1
  6
CONTINUOUS
 62
40
 10
5.3E+001
 20
2.45E+001
 11
5.2E+001
 21
2.35E+001
  0
LINE
  8
MED-1
  6
CONTINUOUS
 62
40
 10
3.300002E+001
 20
2.45E+001
 11
3.4E+001
 21
2.35E+001
  0
LINE
  8
MED-1
  6
CONTINUOUS
 62
40
 10
5.3E+001
 20
2.45E+001
 11
3.300002E+001
 21
2.45E+001
  0
LINE
  8
MED-1
  6
CONTINUOUS
 62
40
 10
5.3E+001
 20
2.950003E+001
 11
5.3E+001
 21
2.45E+001
  0
LINE
  8
MED-1
  6
CONTINUOUS
 62
40
 10
3.3E+001
 20
2.94E+001
 11
3.300002E+001
 21
2.45E+001
  0
ARC
  8
MED-1
  6
CONTINUOUS
 62
40
 10
4.3E+001
 20
2.95E+001
 40
1.0E+001
 50
5.4095932E+001
 51
9.0E+001
  0
ARC
  8
MED-1
  6
CONTINUOUS
 62
40
 10
4.3E+001
 20
2.95E+001
 40
1.0E+001
 50
9.0E+001
 51
1.2590407E+002
  0
LINE
  8
MED-1
  6
CONTINUOUS
 62
40
 10
3.899998E+001
 20
3.759998E+001
 11
3.9E+001
 21
3.75E+001
  0
LINE
  8
MED-1
  6
CONTINUOUS
 62
40
 10
4.699999E+001
 20
3.759998E+001
 11
4.7E+001
 21
3.75E+001
  0
LINE
  8
MED-1
  6
CONTINUOUS
 62
40
 10
8.0E+001
 20
2.35E+001
 11
8.0E+001
 21
2.15E+001
  0
LINE
  8
MED-1
  6
CONTINUOUS
 62
40
 10
8.0E+001
 20
3.75E+001
 11
8.0E+001
 21
3.55E+001
  0
LINE
  8
MED-1
  6
CONTINUOUS
 62
40
 10
8.0E+001
 20
3.55E+001
 11
8.0E+001
 21
2.35E+001
  0
LINE
  8
MED-1
  6
CONTINUOUS
 62
40
 10
2.2E+001
 20
2.15E+001
 11
2.2E+001
 21
2.35E+001
  0
LINE
  8
MED-1
  6
CONTINUOUS
 62
40
 10
2.2E+001
 20
2.35E+001
 11
2.2E+001
 21
3.55E+001
  0
LINE
  8
MED-1
  6
CONTINUOUS
 62
40
 10
2.2E+001
 20
3.55E+001
 11
2.2E+001
 21
3.75E+001
  0
LINE
  8
MED-1
  6
CONTINUOUS
 62
40
 10
7.903151E+001
 20
3.75E+001
 11
8.0E+001
 21
3.75E+001
  0
LINE
  8
MED-1
  6
CONTINUOUS
 62
40
 10
2.2E+001
 20
3.75E+001
 11
2.261769E+001
 21
3.75E+001
  0
LINE
  8
MED-1
  6
CONTINUOUS
 62
40
 10
2.261769E+001
 20
3.75E+001
 11
3.858847E+001
 21
3.75E+001
  0
LINE
  8
MED-1
  6
CONTINUOUS
 62
40
 10
3.858847E+001
 20
3.85E+001
 11
3.86411E+001
 21
3.85E+001
  0
LINE
  8
MED-1
  6
CONTINUOUS
 62
40
 10
4.73589E+001
 20
3.75E+001
 11
7.903151E+001
 21
3.75E+001
  0
LINE
  8
MED-1
  6
CONTINUOUS
 62
40
 10
8.0E+001
 20
2.15E+001
 11
7.903151E+001
 21
2.15E+001
  0
LINE
  8
MED-1
  6
CONTINUOUS
 62
40
 10
7.903151E+001
 20
2.15E+001
 11
4.8E+001
 21
2.15E+001
  0
LINE
  8
MED-1
  6
CONTINUOUS
 62
40
 10
3.8E+001
 20
2.15E+001
 11
2.261769E+001
 21
2.15E+001
  0
LINE
  8
MED-1
  6
CONTINUOUS
 62
40
 10
2.261769E+001
 20
2.15E+001
 11
2.2E+001
 21
2.15E+001
  0
LINE
  8
MED-1
  6
CONTINUOUS
 62
40
 10
7.903151E+001
 20
2.35E+001
 11
8.0E+001
 21
2.35E+001
  0
LINE
  8
MED-1
  6
CONTINUOUS
 62
40
 10
2.2E+001
 20
2.35E+001
 11
2.261769E+001
 21
2.35E+001
  0
LINE
  8
MED-1
  6
CONTINUOUS
 62
40
 10
2.261769E+001
 20
2.35E+001
 11
3.4E+001
 21
2.35E+001
  0
LINE
  8
MED-1
  6
CONTINUOUS
 62
40
 10
5.2E+001
 20
2.35E+001
 11
7.903151E+001
 21
2.35E+001
  0
LINE
  8
MED-1
  6
CONTINUOUS
 62
40
 10
8.0E+001
 20
3.55E+001
 11
7.903151E+001
 21
3.55E+001
  0
LINE
  8
MED-1
  6
CONTINUOUS
 62
40
 10
7.903151E+001
 20
3.55E+001
 11
5.2980354E+001
 21
3.549998E+001
  0
LINE
  8
MED-1
  6
CONTINUOUS
 62
40
 10
3.3019647E+001
 20
3.5499981E+001
 11
2.261769E+001
 21
3.55E+001
  0
LINE
  8
MED-1
  6
CONTINUOUS
 62
40
 10
2.261769E+001
 20
3.55E+001
 11
2.2E+001
 21
3.55E+001
  0
LINE
  8
MED-1
  6
CONTINUOUS
 62
40
 10
6.45E+001
 20
3.25E+001
 11
7.04896E+001
 21
3.25E+001
  0
ARC
  8
MED-1
  6
CONTINUOUS
 62
40
 10
6.45E+001
 20
2.95E+001
 40
3.0000001
 50
9.0E+001
 51
2.7E+002
  0
LINE
  8
MED-1
  6
CONTINUOUS
 62
40
 10
7.04896E+001
 20
2.65E+001
 11
6.45E+001
 21
2.65E+001
  0
ARC
  8
MED-1
  6
CONTINUOUS
 62
40
 10
4.3E+001
 20
3.391667E+001
 40
6.0833333
 50
5.6898288E+001
 51
9.0E+001
  0
ARC
  8
MED-1
  6
CONTINUOUS
 62
40
 10
4.3E+001
 20
3.391667E+001
 40
6.0833333
 50
9.0E+001
 51
1.2310337E+002
  0
CIRCLE
  8
MED-1
  6
CONTINUOUS
 62
40
 10
2.85E+001
 20
2.95E+001
 40
4.25
  0
LINE
  8
MED-1
  6
CONTINUOUS
 62
40
 10
2.925002E+001
 20
3.174997E+001
 11
2.925002E+001
 21
3.024998E+001
  0
LINE
  8
MED-1
  6
CONTINUOUS
 62
40
 10
2.774997E+001
 20
3.174997E+001
 11
2.925002E+001
 21
3.174997E+001
  0
LINE
  8
MED-1
  6
CONTINUOUS
 62
40
 10
2.774997E+001
 20
3.024998E+001
 11
2.774997E+001
 21
3.174997E+001
  0
LINE
  8
MED-1
  6
CONTINUOUS
 62
40
 10
2.624998E+001
 20
3.024998E+001
 11
2.774997E+001
 21
3.024998E+001
  0
LINE
  8
MED-1
  6
CONTINUOUS
 62
40
 10
2.624998E+001
 20
2.874999E+001
 11
2.624998E+001
 21
3.024998E+001
  0
LINE
  8
MED-1
  6
CONTINUOUS
 62
40
 10
2.774997E+001
 20
2.874999E+001
 11
2.624998E+001
 21
2.874999E+001
  0
LINE
  8
MED-1
  6
CONTINUOUS
 62
40
 10
2.774997E+001
 20
2.725E+001
 11
2.774997E+001
 21
2.874999E+001
  0
LINE
  8
MED-1
  6
CONTINUOUS
 62
40
 10
2.925002E+001
 20
2.725E+001
 11
2.774997E+001
 21
2.725E+001
  0
LINE
  8
MED-1
  6
CONTINUOUS
 62
40
 10
2.925002E+001
 20
2.874999E+001
 11
2.925002E+001
 21
2.725E+001
  0
LINE
  8
MED-1
  6
CONTINUOUS
 62
40
 10
3.075001E+001
 20
2.874999E+001
 11
2.925002E+001
 21
2.874999E+001
  0
LINE
  8
MED-1
  6
CONTINUOUS
 62
40
 10
3.075001E+001
 20
3.024998E+001
 11
3.075001E+001
 21
2.874999E+001
  0
LINE
  8
MED-1
  6
CONTINUOUS
 62
40
 10
2.925002E+001
 20
3.024998E+001
 11
3.075001E+001
 21
3.024998E+001
  0
CIRCLE
  8
MED-1
  6
CONTINUOUS
 62
40
 10
7.35E+001
 20
2.95E+001
 40
4.25
  0
LINE
  8
MED-1
  6
CONTINUOUS
 62
40
 10
7.425E+001
 20
3.174997E+001
 11
7.425E+001
 21
3.024998E+001
  0
LINE
  8
MED-1
  6
CONTINUOUS
 62
40
 10
7.275001E+001
 20
3.174997E+001
 11
7.425E+001
 21
3.174997E+001
  0
LINE
  8
MED-1
  6
CONTINUOUS
 62
40
 10
7.275001E+001
 20
3.024998E+001
 11
7.275001E+001
 21
3.174997E+001
  0
LINE
  8
MED-1
  6
CONTINUOUS
 62
40
 10
7.125002E+001
 20
3.024998E+001
 11
7.275001E+001
 21
3.024998E+001
  0
LINE
  8
MED-1
  6
CONTINUOUS
 62
40
 10
7.125002E+001
 20
2.874999E+001
 11
7.125002E+001
 21
3.024998E+001
  0
LINE
  8
MED-1
  6
CONTINUOUS
 62
40
 10
7.275001E+001
 20
2.874999E+001
 11
7.125002E+001
 21
2.874999E+001
  0
LINE
  8
MED-1
  6
CONTINUOUS
 62
40
 10
7.275001E+001
 20
2.725E+001
 11
7.275001E+001
 21
2.874999E+001
  0
LINE
  8
MED-1
  6
CONTINUOUS
 62
40
 10
7.425E+001
 20
2.725E+001
 11
7.275001E+001
 21
2.725E+001
  0
LINE
  8
MED-1
  6
CONTINUOUS
 62
40
 10
7.425E+001
 20
2.874999E+001
 11
7.425E+001
 21
2.725E+001
  0
LINE
  8
MED-1
  6
CONTINUOUS
 62
40
 10
7.574999E+001
 20
2.874999E+001
 11
7.425E+001
 21
2.874999E+001
  0
LINE
  8
MED-1
  6
CONTINUOUS
 62
40
 10
7.574999E+001
 20
3.024998E+001
 11
7.574999E+001
 21
2.874999E+001
  0
LINE
  8
MED-1
  6
CONTINUOUS
 62
40
 10
7.425E+001
 20
3.024998E+001
 11
7.574999E+001
 21
3.024998E+001
  0
LINE
  8
106
  6
CENTERLINE
 62
1
 10
7.875E+001
 20
2.95E+001
 11
6.035901E+001
 21
2.95E+001
  0
LINE
  8
106
  6
CENTERLINE
 62
1
 10
7.35E+001
 20
2.425E+001
 11
7.35E+001
 21
3.475E+001
  0
LINE
  8
106
  6
CENTERLINE
 62
1
 10
3.375E+001
 20
2.95E+001
 11
2.325E+001
 21
2.95E+001
  0
LINE
  8
106
  6
CENTERLINE
 62
1
 10
2.85E+001
 20
2.425E+001
 11
2.85E+001
 21
3.475E+001
  0
LINE
  8
3
  6
CENTERLINE
 62
1
 10
4.3E+001
 20
4.2728632E+001
 11
4.3E+001
 21
1.1021968E+001
  0
LINE
  8
MED-0
  6
CONTINUOUS
 62
1
 10
1.08499E+002
 20
-5.15E+001
 11
1.08499E+002
 21
-5.9E+001
  0
LINE
  8
MED-0
  6
CONTINUOUS
 62
1
 10
-5.1501E+001
 20
-5.15E+001
 11
-5.1501E+001
 21
-5.9E+001
  0
CIRCLE
  8
104
  6
CONTINUOUS
 62
40
 10
1.08499E+002
 20
-5.15E+001
 40
5.0
  0
CIRCLE
  8
104
  6
CONTINUOUS
 62
40
 10
1.08499E+002
 20
-5.15E+001
 40
2.5
  0
CIRCLE
  8
104
  6
CONTINUOUS
 62
40
 10
-5.1501E+001
 20
-5.15E+001
 40
5.0
  0
CIRCLE
  8
104
  6
CONTINUOUS
 62
40
 10
-5.1501E+001
 20
-5.15E+001
 40
2.5
  0
CIRCLE
  8
104
  6
CONTINUOUS
 62
40
 10
-5.1501E+001
 20
-3.55E+001
 40
5.0
  0
CIRCLE
  8
104
  6
CONTINUOUS
 62
40
 10
-5.1501E+001
 20
-3.55E+001
 40
2.5
  0
CIRCLE
  8
104
  6
CONTINUOUS
 62
40
 10
-5.1501E+001
 20
-2.45E+001
 40
5.0
  0
CIRCLE
  8
104
  6
CONTINUOUS
 62
40
 10
-5.1501E+001
 20
-2.45E+001
 40
2.5
  0
CIRCLE
  8
104
  6
CONTINUOUS
 62
40
 10
-5.1501E+001
 20
-8.5
 40
5.0
  0
CIRCLE
  8
104
  6
CONTINUOUS
 62
40
 10
-5.1501E+001
 20
-8.5
 40
2.5
  0
CIRCLE
  8
104
  6
CONTINUOUS
 62
40
 10
1.08499E+002
 20
-3.55E+001
 40
5.0
  0
CIRCLE
  8
104
  6
CONTINUOUS
 62
40
 10
1.08499E+002
 20
-3.55E+001
 40
2.5
  0
CIRCLE
  8
104
  6
CONTINUOUS
 62
40
 10
5.6499E+001
 20
-1.65E+001
 40
5.0
  0
CIRCLE
  8
104
  6
CONTINUOUS
 62
40
 10
5.6499E+001
 20
-1.65E+001
 40
2.5
  0
CIRCLE
  8
104
  6
CONTINUOUS
 62
40
 10
5.6499E+001
 20
-4.35E+001
 40
5.0
  0
CIRCLE
  8
104
  6
CONTINUOUS
 62
40
 10
5.6499E+001
 20
-4.35E+001
 40
2.5
  0
CIRCLE
  8
104
  6
CONTINUOUS
 62
40
 10
4.99E-001
 20
-1.65E+001
 40
5.0
  0
CIRCLE
  8
104
  6
CONTINUOUS
 62
40
 10
4.99E-001
 20
-1.65E+001
 40
2.5
  0
CIRCLE
  8
104
  6
CONTINUOUS
 62
40
 10
4.99E-001
 20
-4.35E+001
 40
5.0
  0
CIRCLE
  8
104
  6
CONTINUOUS
 62
40
 10
4.99E-001
 20
-4.35E+001
 40
2.5
  0
LINE
  8
MED-0
  6
CONTINUOUS
 62
1
 10
1.0882984E+002
 20
-7.9736206
 11
1.0882984E+002
 21
-7.9736206
  0
LINE
  8
MED-0
  6
CONTINUOUS
 62
1
 10
1.0882984E+002
 20
-7.9736206
 11
1.0882984E+002
 21
-7.9736206
  0
LINE
  8
MED-0
  6
CONTINUOUS
 62
1
 10
1.08499E+002
 20
-3.55E+001
 11
1.08499E+002
 21
-3.55E+001
  0
LINE
  8
MED-0
  6
CONTINUOUS
 62
1
 10
1.08499E+002
 20
-3.55E+001
 11
1.08499E+002
 21
-3.55E+001
  0
LINE
  8
MED-0
  6
CONTINUOUS
 62
1
 10
1.08499E+002
 20
-3.55E+001
 11
1.15999E+002
 21
-3.55E+001
  0
LINE
  8
MED-0
  6
CONTINUOUS
 62
1
 10
1.08499E+002
 20
-3.55E+001
 11
1.08499E+002
 21
-2.8E+001
  0
LINE
  8
MED-0
  6
CONTINUOUS
 62
1
 10
1.08499E+002
 20
-3.55E+001
 11
1.00999E+002
 21
-3.55E+001
  0
LINE
  8
MED-0
  6
CONTINUOUS
 62
1
 10
1.08499E+002
 20
-3.55E+001
 11
1.08499E+002
 21
-4.3E+001
  0
LINE
  8
MED-0
  6
CONTINUOUS
 62
1
 10
1.08499E+002
 20
-5.15E+001
 11
1.08499E+002
 21
-5.15E+001
  0
LINE
  8
MED-0
  6
CONTINUOUS
 62
1
 10
1.08499E+002
 20
-5.15E+001
 11
1.08499E+002
 21
-5.15E+001
  0
LINE
  8
MED-0
  6
CONTINUOUS
 62
1
 10
1.08499E+002
 20
-5.15E+001
 11
1.15999E+002
 21
-5.15E+001
  0
LINE
  8
MED-0
  6
CONTINUOUS
 62
1
 10
1.08499E+002
 20
-5.15E+001
 11
1.08499E+002
 21
-4.4E+001
  0
LINE
  8
MED-0
  6
CONTINUOUS
 62
1
 10
1.08499E+002
 20
-5.15E+001
 11
1.00999E+002
 21
-5.15E+001
  0
LINE
  8
MED-0
  6
CONTINUOUS
 62
1
 10
5.6499E+001
 20
-4.35E+001
 11
5.6499E+001
 21
-4.35E+001
  0
LINE
  8
MED-0
  6
CONTINUOUS
 62
1
 10
5.6499E+001
 20
-4.35E+001
 11
5.6499E+001
 21
-4.35E+001
  0
LINE
  8
MED-0
  6
CONTINUOUS
 62
1
 10
5.6499E+001
 20
-4.35E+001
 11
6.3999E+001
 21
-4.35E+001
  0
LINE
  8
MED-0
  6
CONTINUOUS
 62
1
 10
5.6499E+001
 20
-4.35E+001
 11
5.6499E+001
 21
-3.6E+001
  0
LINE
  8
MED-0
  6
CONTINUOUS
 62
1
 10
5.6499E+001
 20
-4.35E+001
 11
4.8999E+001
 21
-4.35E+001
  0
LINE
  8
MED-0
  6
CONTINUOUS
 62
1
 10
5.6499E+001
 20
-4.35E+001
 11
5.6499E+001
 21
-5.1E+001
  0
LINE
  8
MED-0
  6
CONTINUOUS
 62
1
 10
5.6499E+001
 20
-1.65E+001
 11
5.6499E+001
 21
-1.65E+001
  0
LINE
  8
MED-0
  6
CONTINUOUS
 62
1
 10
5.6499E+001
 20
-1.65E+001
 11
5.6499E+001
 21
-1.65E+001
  0
LINE
  8
MED-0
  6
CONTINUOUS
 62
1
 10
5.6499E+001
 20
-1.65E+001
 11
6.3999E+001
 21
-1.65E+001
  0
LINE
  8
MED-0
  6
CONTINUOUS
 62
1
 10
5.6499E+001
 20
-1.65E+001
 11
5.6499E+001
 21
-9.0
  0
LINE
  8
MED-0
  6
CONTINUOUS
 62
1
 10
5.6499E+001
 20
-1.65E+001
 11
4.8999E+001
 21
-1.65E+001
  0
LINE
  8
MED-0
  6
CONTINUOUS
 62
1
 10
5.6499E+001
 20
-1.65E+001
 11
5.6499E+001
 21
-2.4E+001
  0
LINE
  8
MED-0
  6
CONTINUOUS
 62
1
 10
4.99E-001
 20
-1.65E+001
 11
4.99E-001
 21
-1.65E+001
  0
LINE
  8
MED-0
  6
CONTINUOUS
 62
1
 10
4.99E-001
 20
-1.65E+001
 11
4.99E-001
 21
-1.65E+001
  0
LINE
  8
MED-0
  6
CONTINUOUS
 62
1
 10
4.99E-001
 20
-1.65E+001
 11
7.999
 21
-1.65E+001
  0
LINE
  8
MED-0
  6
CONTINUOUS
 62
1
 10
4.99E-001
 20
-1.65E+001
 11
4.99E-001
 21
-9.0
  0
LINE
  8
MED-0
  6
CONTINUOUS
 62
1
 10
4.99E-001
 20
-1.65E+001
 11
-7.001
 21
-1.65E+001
  0
LINE
  8
MED-0
  6
CONTINUOUS
 62
1
 10
4.99E-001
 20
-1.65E+001
 11
4.99E-001
 21
-2.4E+001
  0
LINE
  8
MED-0
  6
CONTINUOUS
 62
1
 10
4.99E-001
 20
-4.35E+001
 11
4.99E-001
 21
-4.35E+001
  0
LINE
  8
MED-0
  6
CONTINUOUS
 62
1
 10
4.99E-001
 20
-4.35E+001
 11
4.99E-001
 21
-4.35E+001
  0
LINE
  8
MED-0
  6
CONTINUOUS
 62
1
 10
4.99E-001
 20
-4.35E+001
 11
7.999
 21
-4.35E+001
  0
LINE
  8
MED-0
  6
CONTINUOUS
 62
1
 10
4.99E-001
 20
-4.35E+001
 11
4.99E-001
 21
-3.6E+001
  0
LINE
  8
MED-0
  6
CONTINUOUS
 62
1
 10
4.99E-001
 20
-4.35E+001
 11
-7.001
 21
-4.35E+001
  0
LINE
  8
MED-0
  6
CONTINUOUS
 62
1
 10
4.99E-001
 20
-4.35E+001
 11
4.99E-001
 21
-5.1E+001
  0
LINE
  8
MED-0
  6
CONTINUOUS
 62
1
 10
-5.1501E+001
 20
-5.15E+001
 11
-5.1501E+001
 21
-5.15E+001
  0
LINE
  8
MED-0
  6
CONTINUOUS
 62
1
 10
-5.1501E+001
 20
-5.15E+001
 11
-5.1501E+001
 21
-5.15E+001
  0
LINE
  8
MED-0
  6
CONTINUOUS
 62
1
 10
-5.1501E+001
 20
-5.15E+001
 11
-4.4001E+001
 21
-5.15E+001
  0
LINE
  8
MED-0
  6
CONTINUOUS
 62
1
 10
-5.1501E+001
 20
-5.15E+001
 11
-5.1501E+001
 21
-4.4E+001
  0
LINE
  8
MED-0
  6
CONTINUOUS
 62
1
 10
-5.1501E+001
 20
-5.15E+001
 11
-5.9001E+001
 21
-5.15E+001
  0
LINE
  8
MED-0
  6
CONTINUOUS
 62
1
 10
-5.1501E+001
 20
-3.55E+001
 11
-5.1501E+001
 21
-3.55E+001
  0
LINE
  8
MED-0
  6
CONTINUOUS
 62
1
 10
-5.1501E+001
 20
-3.55E+001
 11
-5.1501E+001
 21
-3.55E+001
  0
LINE
  8
MED-0
  6
CONTINUOUS
 62
1
 10
-5.1501E+001
 20
-3.55E+001
 11
-4.4001E+001
 21
-3.55E+001
  0
LINE
  8
MED-0
  6
CONTINUOUS
 62
1
 10
-5.1501E+001
 20
-3.55E+001
 11
-5.1501E+001
 21
-2.8E+001
  0
LINE
  8
MED-0
  6
CONTINUOUS
 62
1
 10
-5.1501E+001
 20
-3.55E+001
 11
-5.9001E+001
 21
-3.55E+001
  0
LINE
  8
MED-0
  6
CONTINUOUS
 62
1
 10
-5.1501E+001
 20
-3.55E+001
 11
-5.1501E+001
 21
-4.3E+001
  0
LINE
  8
MED-0
  6
CONTINUOUS
 62
1
 10
-5.1501E+001
 20
-2.45E+001
 11
-5.1501E+001
 21
-2.45E+001
  0
LINE
  8
MED-0
  6
CONTINUOUS
 62
1
 10
-5.1501E+001
 20
-2.45E+001
 11
-5.1501E+001
 21
-2.45E+001
  0
LINE
  8
MED-0
  6
CONTINUOUS
 62
1
 10
-5.1501E+001
 20
-2.45E+001
 11
-4.4001E+001
 21
-2.45E+001
  0
LINE
  8
MED-0
  6
CONTINUOUS
 62
1
 10
-5.1501E+001
 20
-2.45E+001
 11
-5.1501E+001
 21
-1.7E+001
  0
LINE
  8
MED-0
  6
CONTINUOUS
 62
1
 10
-5.1501E+001
 20
-2.45E+001
 11
-5.9001E+001
 21
-2.45E+001
  0
LINE
  8
MED-0
  6
CONTINUOUS
 62
1
 10
-5.1501E+001
 20
-2.45E+001
 11
-5.1501E+001
 21
-3.2E+001
  0
LINE
  8
MED-0
  6
CONTINUOUS
 62
1
 10
-5.1501E+001
 20
-8.5
 11
-5.1501E+001
 21
-8.5
  0
LINE
  8
MED-0
  6
CONTINUOUS
 62
1
 10
-5.1501E+001
 20
-8.5
 11
-5.1501E+001
 21
-8.5
  0
LINE
  8
MED-0
  6
CONTINUOUS
 62
1
 10
-5.1501E+001
 20
-8.5
 11
-4.4001E+001
 21
-8.5
  0
LINE
  8
MED-0
  6
CONTINUOUS
 62
1
 10
-5.1501E+001
 20
-8.5
 11
-5.1501E+001
 21
-1.0
  0
LINE
  8
MED-0
  6
CONTINUOUS
 62
1
 10
-5.1501E+001
 20
-8.5
 11
-5.9001E+001
 21
-8.5
  0
LINE
  8
MED-0
  6
CONTINUOUS
 62
1
 10
-5.1501E+001
 20
-8.5
 11
-5.1501E+001
 21
-1.6E+001
  0
CIRCLE
  8
104
  6
CONTINUOUS
 62
40
 10
1.08499E+002
 20
-2.45E+001
 40
5.0
  0
CIRCLE
  8
104
  6
CONTINUOUS
 62
40
 10
1.08499E+002
 20
-2.45E+001
 40
2.5
  0
LINE
  8
MED-0
  6
CONTINUOUS
 62
1
 10
1.08499E+002
 20
-2.45E+001
 11
1.08499E+002
 21
-2.45E+001
  0
LINE
  8
MED-0
  6
CONTINUOUS
 62
1
 10
1.08499E+002
 20
-2.45E+001
 11
1.08499E+002
 21
-2.45E+001
  0
LINE
  8
MED-0
  6
CONTINUOUS
 62
1
 10
1.08499E+002
 20
-2.45E+001
 11
1.15999E+002
 21
-2.45E+001
  0
LINE
  8
MED-0
  6
CONTINUOUS
 62
1
 10
1.08499E+002
 20
-2.45E+001
 11
1.08499E+002
 21
-1.7E+001
  0
LINE
  8
MED-0
  6
CONTINUOUS
 62
1
 10
1.08499E+002
 20
-2.45E+001
 11
1.00999E+002
 21
-2.45E+001
  0
LINE
  8
MED-0
  6
CONTINUOUS
 62
1
 10
1.08499E+002
 20
-2.45E+001
 11
1.08499E+002
 21
-3.2E+001
  0
CIRCLE
  8
104
  6
CONTINUOUS
 62
40
 10
1.08499E+002
 20
-8.5
 40
5.0
  0
CIRCLE
  8
104
  6
CONTINUOUS
 62
40
 10
1.08499E+002
 20
-8.5
 40
2.5
  0
LINE
  8
MED-0
  6
CONTINUOUS
 62
1
 10
1.08499E+002
 20
-8.5
 11
1.08499E+002
 21
-8.5
  0
LINE
  8
MED-0
  6
CONTINUOUS
 62
1
 10
1.08499E+002
 20
-8.5
 11
1.08499E+002
 21
-8.5
  0
LINE
  8
MED-0
  6
CONTINUOUS
 62
1
 10
1.08499E+002
 20
-8.5
 11
1.15999E+002
 21
-8.5
  0
LINE
  8
MED-0
  6
CONTINUOUS
 62
1
 10
1.08499E+002
 20
-8.5
 11
1.08499E+002
 21
-1.0
  0
LINE
  8
MED-0
  6
CONTINUOUS
 62
1
 10
1.08499E+002
 20
-8.5
 11
1.00999E+002
 21
-8.5
  0
LINE
  8
MED-0
  6
CONTINUOUS
 62
1
 10
1.08499E+002
 20
-8.5
 11
1.08499E+002
 21
-1.6E+001
  0
POINT
  8
Drafting_Hidden_Entities
  6
CONTINUOUS
 62
1
 10
0.0
 20
0.0
  0
ENDBLK
  0
ENDSEC
  0
SECTION
  2
ENTITIES
  0
LINE
  8
0
  6
CONTINUOUS
 62
3
 10
1.0458117E+001
 20
1.8406285E+001
 11
4.103765E+002
 21
1.8406285E+001
  0
LINE
  8
0
  6
CONTINUOUS
 62
3
 10
4.103765E+002
 20
1.8406285E+001
 11
4.103765E+002
 21
1.4139374E+002
  0
LINE
  8
0
  6
CONTINUOUS
 62
3
 10
4.103765E+002
 20
1.4139374E+002
 11
1.0458117E+001
 21
1.4139374E+002
  0
LINE
  8
0
  6
CONTINUOUS
 62
3
 10
1.0458117E+001
 20
1.4139374E+002
 11
1.0458117E+001
 21
1.8406285E+001
  0
TEXT
  8
MED-1
  6
CONTINUOUS
 62
7
 10
1.1658117E+001
 20
1.9606285E+001
 40
1.0
  1
2-FRONT
 41
3.0
 50
1.0
  0
TEXT
  8
103
  6
CONTINUOUS
 62
40
 10
4.0686653E+002
 20
1.4631415E+001
 40
5.0
  1
TS73V
 41
6.5625E-001
 72
1
 11
3.9866341E+002
 21
1.2131415E+001
 73
2
  0
TEXT
  8
103
  6
CONTINUOUS
 62
150
 10
2.0269636E+001
 20
2.8836266E+002
 40
3.5
  1
M 1:1
 41
6.3000002E-001
 72
1
 11
1.4757136E+001
 21
2.8661266E+002
 73
2
  0
TEXT
  8
103
  6
CONTINUOUS
 62
150
 10
2.3401566E+001
 20
1.4816976E+002
 40
3.5
  1
M 1:2.5
 41
6.4285716E-001
 72
1
 11
1.5526566E+001
 21
1.4641976E+002
 73
2
  0
LINE
  8
98
  6
CONTINUOUS
 62
1
 10
5.0
 20
5.0
 11
4.15E+002
 21
5.0
  0
LINE
  8
98
  6
CONTINUOUS
 62
1
 10
4.15E+002
 20
5.0
 11
4.15E+002
 21
2.92E+002
  0
LINE
  8
98
  6
CONTINUOUS
 62
1
 10
4.15E+002
 20
2.92E+002
 11
5.0
 21
2.92E+002
  0
LINE
  8
98
  6
CONTINUOUS
 62
1
 10
5.0
 20
2.92E+002
 11
5.0
 21
5.0
  0
LINE
  8
106
  6
CENTERLINE
 62
1
 10
3.1083313E+002
 20
2.5870915E+002
 11
3.1083313E+002
 21
2.4017015E+002
  0
CIRCLE
  8
104
  6
CONTINUOUS
 62
40
 10
3.1083313E+002
 20
2.1365815E+002
 40
6.0
  0
LINE
  8
104
  6
CONTINUOUS
 62
40
 10
3.1227653E+002
 20
2.1615815E+002
 11
3.0938973E+002
 21
2.1615815E+002
  0
LINE
  8
104
  6
CONTINUOUS
 62
40
 10
3.0938973E+002
 20
2.1615815E+002
 11
3.0794633E+002
 21
2.1365815E+002
  0
LINE
  8
104
  6
CONTINUOUS
 62
40
 10
3.0794633E+002
 20
2.1365815E+002
 11
3.0938973E+002
 21
2.1115815E+002
  0
LINE
  8
104
  6
CONTINUOUS
 62
40
 10
3.0938973E+002
 20
2.1115815E+002
 11
3.1227653E+002
 21
2.1115815E+002
  0
LINE
  8
104
  6
CONTINUOUS
 62
40
 10
3.1227653E+002
 20
2.1115815E+002
 11
3.1371983E+002
 21
2.1365815E+002
  0
LINE
  8
104
  6
CONTINUOUS
 62
40
 10
3.1371983E+002
 20
2.1365815E+002
 11
3.1227653E+002
 21
2.1615815E+002
  0
LINE
  8
106
  6
CENTERLINE
 62
1
 10
3.0209863E+002
 20
2.1365815E+002
 11
3.2001913E+002
 21
2.1365815E+002
  0
LINE
  8
106
  6
CENTERLINE
 62
1
 10
3.1083313E+002
 20
2.0467515E+002
 11
3.1083313E+002
 21
2.2221015E+002
  0
LINE
  8
106
  6
CENTERLINE
 62
1
 10
3.3133303E+002
 20
1.9115815E+002
 11
2.9033313E+002
 21
1.9115815E+002
  0
LINE
  8
106
  6
CENTERLINE
 62
1
 10
3.3133303E+002
 20
2.3615815E+002
 11
2.9033313E+002
 21
2.3615815E+002
  0
LINE
  8
104
  6
CONTINUOUS
 62
40
 10
3.2577383E+002
 20
1.8365815E+002
 11
3.1922933E+002
 21
1.7940815E+002
  0
LINE
  8
104
  6
CONTINUOUS
 62
40
 10
3.1922933E+002
 20
1.7940815E+002
 11
3.0243683E+002
 21
1.7940815E+002
  0
LINE
  8
104
  6
CONTINUOUS
 62
40
 10
3.0243683E+002
 20
1.7940815E+002
 11
2.9589243E+002
 21
1.8365815E+002
  0
LINE
  8
104
  6
CONTINUOUS
 62
40
 10
2.8883313E+002
 20
2.4365815E+002
 11
2.8883313E+002
 21
2.4135815E+002
  0
LINE
  8
104
  6
CONTINUOUS
 62
40
 10
2.8883313E+002
 20
2.4135815E+002
 11
2.8894673E+002
 21
2.4135815E+002
  0
LINE
  8
104
  6
CONTINUOUS
 62
40
 10
2.8894673E+002
 20
2.4135815E+002
 11
2.9033313E+002
 21
2.4209515E+002
  0
LINE
  8
104
  6
CONTINUOUS
 62
40
 10
2.9033313E+002
 20
2.4209515E+002
 11
2.9033313E+002
 21
1.8522115E+002
  0
LINE
  8
104
  6
CONTINUOUS
 62
40
 10
2.9033313E+002
 20
1.8522115E+002
 11
2.8894683E+002
 21
1.8595815E+002
  0
LINE
  8
104
  6
CONTINUOUS
 62
40
 10
2.8894683E+002
 20
1.8595815E+002
 11
2.8883313E+002
 21
1.8595815E+002
  0
LINE
  8
104
  6
CONTINUOUS
 62
40
 10
2.8883313E+002
 20
1.8595815E+002
 11
2.8883313E+002
 21
1.8365815E+002
  0
LINE
  8
104
  6
CONTINUOUS
 62
40
 10
2.8883313E+002
 20
1.8365815E+002
 11
3.3133303E+002
 21
1.8365815E+002
  0
LINE
  8
104
  6
CONTINUOUS
 62
40
 10
3.3133303E+002
 20
2.4365815E+002
 11
2.8883313E+002
 21
2.4365815E+002
  0
LINE
  8
104
  6
CONTINUOUS
 62
40
 10
2.9033313E+002
 20
2.4175815E+002
 11
2.8983313E+002
 21
2.4175815E+002
  0
LINE
  8
104
  6
CONTINUOUS
 62
40
 10
2.8983313E+002
 20
2.4175815E+002
 11
2.8983313E+002
 21
1.8555815E+002
  0
LINE
  8
104
  6
CONTINUOUS
 62
40
 10
2.8983313E+002
 20
1.8555815E+002
 11
2.9033313E+002
 21
1.8555815E+002
  0
LINE
  8
104
  6
CONTINUOUS
 62
40
 10
2.9033313E+002
 20
1.8555815E+002
 11
2.9033313E+002
 21
2.4175815E+002
  0
LINE
  8
MED-1
  6
CONTINUOUS
 62
40
 10
3.0894115E+002
 20
2.5815815E+002
 11
3.2183313E+002
 21
2.5815815E+002
  0
LINE
  8
MED-1
  6
CONTINUOUS
 62
40
 10
3.0754524E+002
 20
2.5815813E+002
 11
3.0894115E+002
 21
2.5815815E+002
  0
LINE
  8
MED-1
  6
CONTINUOUS
 62
40
 10
2.7393917E+002
 20
2.5815814E+002
 11
3.0754524E+002
 21
2.5815813E+002
  0
LINE
  8
MED-1
  6
CONTINUOUS
 62
40
 10
3.0754526E+002
 20
2.6415815E+002
 11
3.0754524E+002
 21
2.5815813E+002
  0
LINE
  8
MED-1
  6
CONTINUOUS
 62
40
 10
3.0754526E+002
 20
2.6415815E+002
 11
2.7393917E+002
 21
2.6415815E+002
  0
LINE
  8
MED-1
  6
CONTINUOUS
 62
40
 10
2.9983313E+002
 20
2.4365815E+002
 11
2.9983312E+002
 21
2.5815813E+002
  0
LINE
  8
MED-1
  6
CONTINUOUS
 62
40
 10
3.2183313E+002
 20
2.6415815E+002
 11
3.2183313E+002
 21
2.4365815E+002
  0
LINE
  8
MED-1
  6
CONTINUOUS
 62
40
 10
3.2182567E+002
 20
2.6415815E+002
 11
3.0754526E+002
 21
2.6415815E+002
  0
POLYLINE
  8
106
  6
CENTERLINE
 62
1
 66
1
 40
0.0
 41
0.0
 70
2
  0
VERTEX
  8
106
 42
0.0
 10
2.7393917E+002
 20
2.6415815E+002
 70
0
  0
VERTEX
  8
106
 42
9.2324079E-003
 10
2.7378006E+002
 20
2.6393134E+002
 70
1
  0
VERTEX
  8
106
 42
8.8411803E-003
 10
2.7363331E+002
 20
2.6370545E+002
 70
0
  0
VERTEX
  8
106
 42
1.0296252E-002
 10
2.7349902E+002
 20
2.634805E+002
 70
1
  0
VERTEX
  8
106
 42
1.4267972E-002
 10
2.7337953E+002
 20
2.6325648E+002
 70
0
  0
VERTEX
  8
106
 42
1.8048001E-002
 10
2.7327897E+002
 20
2.6303344E+002
 70
1
  0
VERTEX
  8
106
 42
2.2083838E-002
 10
2.7319923E+002
 20
2.6281136E+002
 70
0
  0
VERTEX
  8
106
 42
2.6064686E-002
 10
2.7314375E+002
 20
2.6259028E+002
 70
1
  0
VERTEX
  8
106
 42
3.0114061E-002
 10
2.7311381E+002
 20
2.6237018E+002
 70
0
  0
VERTEX
  8
106
 42
3.4583056E-002
 10
2.7311314E+002
 20
2.6215111E+002
 70
1
  0
VERTEX
  8
106
 42
3.9550655E-002
 10
2.7314467E+002
 20
2.6193306E+002
 70
0
  0
VERTEX
  8
106
 42
3.6229736E-002
 10
2.7321263E+002
 20
2.6171607E+002
 70
1
  0
VERTEX
  8
106
 42
2.6791222E-002
 10
2.7331097E+002
 20
2.6150007E+002
 70
0
  0
VERTEX
  8
106
 42
1.3968395E-002
 10
2.734324E+002
 20
2.6128506E+002
 70
1
  0
VERTEX
  8
106
 42
-4.2625463E-003
 10
2.7355866E+002
 20
2.6107097E+002
 70
0
  0
VERTEX
  8
106
 42
-2.2308062E-002
 10
2.7366964E+002
 20
2.6085778E+002
 70
1
  0
VERTEX
  8
106
 42
-4.8714177E-002
 10
2.737455E+002
 20
2.6064506E+002
 70
0
  0
VERTEX
  8
106
 42
-6.8097367E-002
 10
2.7376593E+002
 20
2.6043265E+002
 70
1
  0
VERTEX
  8
106
 42
-7.2067293E-002
 10
2.7372679E+002
 20
2.6022162E+002
 70
0
  0
VERTEX
  8
106
 42
-4.4895101E-002
 10
2.7362846E+002
 20
2.600124E+002
 70
1
  0
VERTEX
  8
106
 42
-5.698894E-004
 10
2.7350577E+002
 20
2.5980067E+002
 70
0
  0
VERTEX
  8
106
 42
1.6372564E-002
 10
2.7339356E+002
 20
2.595851E+002
 70
1
  0
VERTEX
  8
106
 42
1.8487067E-002
 10
2.7330506E+002
 20
2.593833E+002
 70
0
  0
VERTEX
  8
106
 42
8.9583672E-002
 10
2.732608E+002
 20
2.5920146E+002
 70
1
  0
VERTEX
  8
106
 42
1.243969E-001
 10
2.7332183E+002
 20
2.5897048E+002
 70
0
  0
VERTEX
  8
106
 42
4.4765343E-002
 10
2.7355294E+002
 20
2.5861791E+002
 70
1
  0
VERTEX
  8
106
 42
2.1079969E-002
 10
2.7393917E+002
 20
2.5815814E+002
 70
0
  0
SEQEND
  0
INSERT
  2
MONTAGEPLATTE
  8
109
 10
3.3633303E+002
 20
1.9215815E+002
  0
LINE
  8
104
  6
CONTINUOUS
 62
1
 10
3.3633303E+002
 20
2.5015815E+002
 11
3.5348434E+002
 21
2.5015815E+002
  0
LINE
  8
104
  6
CONTINUOUS
 62
40
 10
3.3633303E+002
 20
2.4365815E+002
 11
3.3633303E+002
 21
2.5015815E+002
  0
INSERT
  2
M5
  8
109
 10
3.3633303E+002
 20
1.9215815E+002
  0
INSERT
  2
M5
  8
109
 10
3.3633303E+002
 20
2.0815815E+002
  0
LINE
  8
MED-1
  6
CONTINUOUS
 62
40
 10
3.3433303E+002
 20
2.8115815E+002
 11
3.3109682E+002
 21
2.8115815E+002
  0
LINE
  8
MED-1
  6
CONTINUOUS
 62
40
 10
3.3109682E+002
 20
2.8115815E+002
 11
3.2988376E+002
 21
2.8115815E+002
  0
LINE
  8
MED-1
  6
CONTINUOUS
 62
40
 10
3.2988376E+002
 20
2.8115815E+002
 11
3.1826768E+002
 21
2.8115815E+002
  0
LINE
  8
MED-1
  6
CONTINUOUS
 62
40
 10
3.1826768E+002
 20
2.8115815E+002
 11
3.1683303E+002
 21
2.8115815E+002
  0
LINE
  8
MED-1
  6
CONTINUOUS
 62
40
 10
3.1683303E+002
 20
2.6515815E+002
 11
3.1826768E+002
 21
2.6515815E+002
  0
LINE
  8
MED-1
  6
CONTINUOUS
 62
40
 10
3.1826768E+002
 20
2.6515815E+002
 11
3.2988376E+002
 21
2.6515815E+002
  0
LINE
  8
MED-1
  6
CONTINUOUS
 62
40
 10
3.2988376E+002
 20
2.6515815E+002
 11
3.3109682E+002
 21
2.6515815E+002
  0
LINE
  8
MED-1
  6
CONTINUOUS
 62
40
 10
3.3433303E+002
 20
2.6515815E+002
 11
3.3109682E+002
 21
2.6515815E+002
  0
LINE
  8
MED-1
  6
CONTINUOUS
 62
40
 10
3.3109682E+002
 20
2.6715815E+002
 11
3.3433303E+002
 21
2.6715815E+002
  0
LINE
  8
MED-1
  6
CONTINUOUS
 62
40
 10
3.3109682E+002
 20
2.6715815E+002
 11
3.2988376E+002
 21
2.6715815E+002
  0
LINE
  8
MED-1
  6
CONTINUOUS
 62
40
 10
3.2988376E+002
 20
2.6715815E+002
 11
3.1826768E+002
 21
2.6715815E+002
  0
LINE
  8
MED-1
  6
CONTINUOUS
 62
40
 10
3.1826768E+002
 20
2.6715815E+002
 11
3.1683303E+002
 21
2.6715815E+002
  0
LINE
  8
MED-1
  6
CONTINUOUS
 62
40
 10
3.1683303E+002
 20
2.7915815E+002
 11
3.1826768E+002
 21
2.7915815E+002
  0
LINE
  8
MED-1
  6
CONTINUOUS
 62
40
 10
3.1826768E+002
 20
2.7915815E+002
 11
3.2988376E+002
 21
2.7915815E+002
  0
LINE
  8
MED-1
  6
CONTINUOUS
 62
40
 10
3.2988376E+002
 20
2.7915815E+002
 11
3.3109682E+002
 21
2.7915815E+002
  0
LINE
  8
MED-1
  6
CONTINUOUS
 62
40
 10
3.3433303E+002
 20
2.7915815E+002
 11
3.3109682E+002
 21
2.7915815E+002
  0
ARC
  8
MED-1
  6
CONTINUOUS
 62
40
 10
3.3433303E+002
 20
2.7915815E+002
 40
2.0000001
 50
0.0
 51
9.0E+001
  0
ARC
  8
MED-1
  6
CONTINUOUS
 62
40
 10
3.3433303E+002
 20
2.6715815E+002
 40
1.9999999
 50
2.7E+002
 51
3.6E+002
  0
LINE
  8
MED-1
  6
CONTINUOUS
 62
40
 10
3.3433303E+002
 20
2.6715815E+002
 11
3.3433303E+002
 21
2.7915815E+002
  0
LINE
  8
MED-1
  6
CONTINUOUS
 62
40
 10
3.3633303E+002
 20
2.7915815E+002
 11
3.3633303E+002
 21
2.6715815E+002
  0
LINE
  8
MED-1
  6
CONTINUOUS
 62
40
 10
3.1683303E+002
 20
2.7915815E+002
 11
3.1683303E+002
 21
2.8115815E+002
  0
LINE
  8
MED-1
  6
CONTINUOUS
 62
40
 10
3.1683303E+002
 20
2.6515815E+002
 11
3.1683303E+002
 21
2.6715815E+002
  0
CIRCLE
  8
MED-1
  6
CONTINUOUS
 62
40
 10
3.0733303E+002
 20
2.7315815E+002
 40
3.5
  0
ARC
  8
MED-1
  6
CONTINUOUS
 62
40
 10
3.2433303E+002
 20
2.7657482E+002
 40
6.0833332
 50
4.888791E+001
 51
9.0E+001
  0
ARC
  8
MED-1
  6
CONTINUOUS
 62
40
 10
3.2433303E+002
 20
2.7657482E+002
 40
6.0833333
 50
9.0E+001
 51
1.3111209E+002
  0
LINE
  8
MED-1
  6
CONTINUOUS
 62
40
 10
3.2933303E+002
 20
2.6740815E+002
 11
3.1933303E+002
 21
2.6740815E+002
  0
LINE
  8
MED-1
  6
CONTINUOUS
 62
40
 10
3.1933303E+002
 20
2.7890815E+002
 11
3.2933303E+002
 21
2.7890815E+002
  0
LINE
  8
MED-1
  6
CONTINUOUS
 62
40
 10
3.2933303E+002
 20
2.7890815E+002
 11
3.2933304E+002
 21
2.7865816E+002
  0
LINE
  8
MED-1
  6
CONTINUOUS
 62
40
 10
3.2933304E+002
 20
2.6765813E+002
 11
3.2933303E+002
 21
2.6740815E+002
  0
LINE
  8
MED-1
  6
CONTINUOUS
 62
40
 10
3.1933303E+002
 20
2.6740815E+002
 11
3.1933304E+002
 21
2.6765813E+002
  0
LINE
  8
MED-1
  6
CONTINUOUS
 62
40
 10
3.1933304E+002
 20
2.7865816E+002
 11
3.1933303E+002
 21
2.7890815E+002
  0
ARC
  8
MED-1
  6
CONTINUOUS
 62
40
 10
3.0733303E+002
 20
2.7315815E+002
 40
5.5
 50
9.0E+001
 51
1.8E+002
  0
ARC
  8
MED-1
  6
CONTINUOUS
 62
40
 10
3.0733303E+002
 20
2.7315815E+002
 40
5.5
 50
1.8E+002
 51
2.7E+002
  0
LINE
  8
MED-1
  6
CONTINUOUS
 62
40
 10
3.1912822E+002
 20
2.7865815E+002
 11
3.3183303E+002
 21
2.7865815E+002
  0
LINE
  8
MED-1
  6
CONTINUOUS
 62
40
 10
3.1912822E+002
 20
2.7865815E+002
 11
3.1739328E+002
 21
2.7865815E+002
  0
LINE
  8
MED-1
  6
CONTINUOUS
 62
40
 10
3.1739328E+002
 20
2.7865815E+002
 11
3.0733303E+002
 21
2.7865815E+002
  0
LINE
  8
MED-1
  6
CONTINUOUS
 62
40
 10
3.0733303E+002
 20
2.6765815E+002
 11
3.1739328E+002
 21
2.6765815E+002
  0
LINE
  8
MED-1
  6
CONTINUOUS
 62
40
 10
3.1739328E+002
 20
2.6765815E+002
 11
3.1912822E+002
 21
2.6765815E+002
  0
LINE
  8
MED-1
  6
CONTINUOUS
 62
40
 10
3.3183303E+002
 20
2.6765815E+002
 11
3.1912822E+002
 21
2.6765815E+002
  0
LINE
  8
MED-1
  6
CONTINUOUS
 62
40
 10
3.1912822E+002
 20
2.6765815E+002
 11
3.1912822E+002
 21
2.7865815E+002
  0
LINE
  8
MED-1
  6
CONTINUOUS
 62
40
 10
3.3183303E+002
 20
2.7865815E+002
 11
3.3183304E+002
 21
2.7740816E+002
  0
LINE
  8
MED-1
  6
CONTINUOUS
 62
40
 10
3.3183303E+002
 20
2.6890815E+002
 11
3.3183303E+002
 21
2.6765815E+002
  0
LINE
  8
MED-1
  6
CONTINUOUS
 62
40
 10
2.9683303E+002
 20
2.7038051E+002
 11
2.9683328E+002
 21
2.6962519E+002
  0
LINE
  8
MED-1
  6
CONTINUOUS
 62
40
 10
2.9683303E+002
 20
2.7038051E+002
 11
2.9683303E+002
 21
2.7039636E+002
  0
LINE
  8
MED-1
  6
CONTINUOUS
 62
40
 10
2.9683303E+002
 20
2.7591995E+002
 11
2.9683303E+002
 21
2.7039636E+002
  0
LINE
  8
MED-1
  6
CONTINUOUS
 62
40
 10
2.9683303E+002
 20
2.7665841E+002
 11
2.9683303E+002
 21
2.7598464E+002
  0
LINE
  8
MED-1
  6
CONTINUOUS
 62
40
 10
2.9683303E+002
 20
2.7591995E+002
 11
2.9683303E+002
 21
2.7598464E+002
  0
LINE
  8
MED-1
  6
CONTINUOUS
 62
40
 10
2.9683303E+002
 20
2.7683345E+002
 11
2.9683303E+002
 21
2.7665841E+002
  0
LINE
  8
MED-1
  6
CONTINUOUS
 62
40
 10
3.0003302E+002
 20
2.6840812E+002
 11
3.0003302E+002
 21
2.6914637E+002
  0
LINE
  8
MED-1
  6
CONTINUOUS
 62
40
 10
3.0456039E+002
 20
2.6840815E+002
 11
3.042774E+002
 21
2.6840815E+002
  0
LINE
  8
MED-1
  6
CONTINUOUS
 62
40
 10
3.042774E+002
 20
2.6840815E+002
 11
3.0399447E+002
 21
2.6840815E+002
  0
LINE
  8
MED-1
  6
CONTINUOUS
 62
40
 10
3.0399447E+002
 20
2.6840815E+002
 11
3.0371165E+002
 21
2.6840815E+002
  0
LINE
  8
MED-1
  6
CONTINUOUS
 62
40
 10
3.0371165E+002
 20
2.6840815E+002
 11
3.0342855E+002
 21
2.6840815E+002
  0
LINE
  8
MED-1
  6
CONTINUOUS
 62
40
 10
3.0342855E+002
 20
2.6840815E+002
 11
3.0314502E+002
 21
2.6840815E+002
  0
LINE
  8
MED-1
  6
CONTINUOUS
 62
40
 10
3.0314502E+002
 20
2.6840815E+002
 11
3.0286263E+002
 21
2.6840815E+002
  0
LINE
  8
MED-1
  6
CONTINUOUS
 62
40
 10
3.0286263E+002
 20
2.6840815E+002
 11
3.0258193E+002
 21
2.6840815E+002
  0
LINE
  8
MED-1
  6
CONTINUOUS
 62
40
 10
3.0258193E+002
 20
2.6840815E+002
 11
3.0229671E+002
 21
2.6840815E+002
  0
LINE
  8
MED-1
  6
CONTINUOUS
 62
40
 10
3.0229671E+002
 20
2.6840815E+002
 11
3.0200482E+002
 21
2.6840815E+002
  0
LINE
  8
MED-1
  6
CONTINUOUS
 62
40
 10
3.0200482E+002
 20
2.6840815E+002
 11
3.0173079E+002
 21
2.6840814E+002
  0
LINE
  8
MED-1
  6
CONTINUOUS
 62
40
 10
3.0173079E+002
 20
2.6840814E+002
 11
3.0148304E+002
 21
2.6840814E+002
  0
LINE
  8
MED-1
  6
CONTINUOUS
 62
40
 10
3.0148304E+002
 20
2.6840814E+002
 11
3.0116486E+002
 21
2.6840814E+002
  0
LINE
  8
MED-1
  6
CONTINUOUS
 62
40
 10
3.0116486E+002
 20
2.6840814E+002
 11
3.006748E+002
 21
2.6840813E+002
  0
LINE
  8
MED-1
  6
CONTINUOUS
 62
40
 10
3.006748E+002
 20
2.6840813E+002
 11
3.0003302E+002
 21
2.6840812E+002
  0
LINE
  8
MED-1
  6
CONTINUOUS
 62
40
 10
3.0357064E+002
 20
2.6914636E+002
 11
3.0003302E+002
 21
2.6914637E+002
  0
LINE
  8
MED-1
  6
CONTINUOUS
 62
40
 10
2.969565E+002
 20
2.6953907E+002
 11
2.9696043E+002
 21
2.6954371E+002
  0
ARC
  8
MED-1
  6
CONTINUOUS
 62
40
 10
3.0794787E+002
 20
2.6020939E+002
 40
1.441712E+001
 50
1.3958391E+002
 51
1.3965059E+002
  0
LINE
  8
MED-1
  6
CONTINUOUS
 62
40
 10
2.969713E+002
 20
2.6955649E+002
 11
2.969892E+002
 21
2.6957755E+002
  0
LINE
  8
MED-1
  6
CONTINUOUS
 62
40
 10
2.969892E+002
 20
2.6957755E+002
 11
2.9701512E+002
 21
2.6960805E+002
  0
LINE
  8
MED-1
  6
CONTINUOUS
 62
40
 10
2.9701512E+002
 20
2.6960805E+002
 11
2.9704963E+002
 21
2.6964864E+002
  0
LINE
  8
MED-1
  6
CONTINUOUS
 62
40
 10
2.9704963E+002
 20
2.6964864E+002
 11
2.9708631E+002
 21
2.6969179E+002
  0
LINE
  8
MED-1
  6
CONTINUOUS
 62
40
 10
2.9708631E+002
 20
2.6969179E+002
 11
2.9712308E+002
 21
2.6973505E+002
  0
LINE
  8
MED-1
  6
CONTINUOUS
 62
40
 10
2.9712308E+002
 20
2.6973505E+002
 11
2.9718224E+002
 21
2.6980465E+002
  0
LINE
  8
MED-1
  6
CONTINUOUS
 62
40
 10
2.9718224E+002
 20
2.6980465E+002
 11
2.9728775E+002
 21
2.6992877E+002
  0
LINE
  8
MED-1
  6
CONTINUOUS
 62
40
 10
2.9728775E+002
 20
2.6992877E+002
 11
2.9743466E+002
 21
2.7010158E+002
  0
LINE
  8
MED-1
  6
CONTINUOUS
 62
40
 10
3.0003302E+002
 20
2.6840812E+002
 11
2.9986008E+002
 21
2.6841121E+002
  0
ARC
  8
MED-1
  6
CONTINUOUS
 62
40
 10
3.0003554E+002
 20
2.7345104E+002
 40
5.0428806
 50
2.6606087E+002
 51
2.6800608E+002
  0
ARC
  8
MED-1
  6
CONTINUOUS
 62
40
 10
3.0003146E+002
 20
2.7327883E+002
 40
4.8708089
 50
2.6397496E+002
 51
2.6596964E+002
  0
ARC
  8
MED-1
  6
CONTINUOUS
 62
40
 10
3.0001924E+002
 20
2.7317139E+002
 40
4.7626796
 50
2.6196142E+002
 51
2.639854E+002
  0
ARC
  8
MED-1
  6
CONTINUOUS
 62
40
 10
3.0001813E+002
 20
2.731334E+002
 40
4.7249057
 50
2.5988441E+002
 51
2.6191039E+002
  0
ARC
  8
MED-1
  6
CONTINUOUS
 62
40
 10
3.0001055E+002
 20
2.7310923E+002
 40
4.6997785
 50
2.5789897E+002
 51
2.5992367E+002
  0
ARC
  8
MED-1
  6
CONTINUOUS
 62
40
 10
3.000158E+002
 20
2.7311309E+002
 40
4.7046604
 50
2.5583385E+002
 51
2.5784633E+002
  0
ARC
  8
MED-1
  6
CONTINUOUS
 62
40
 10
3.0000385E+002
 20
2.7307006E+002
 40
4.6600159
 50
2.5381979E+002
 51
2.5584678E+002
  0
ARC
  8
MED-1
  6
CONTINUOUS
 62
40
 10
2.9998826E+002
 20
2.7300175E+002
 40
4.5900692
 50
2.5171292E+002
 51
2.5376911E+002
  0
ARC
  8
MED-1
  6
CONTINUOUS
 62
40
 10
3.0002154E+002
 20
2.7314163E+002
 40
4.7333367
 50
2.4987768E+002
 51
2.5186164E+002
  0
ARC
  8
MED-1
  6
CONTINUOUS
 62
40
 10
3.0015183E+002
 20
2.7349285E+002
 40
5.1079465
 50
2.480334E+002
 51
2.4986077E+002
  0
ARC
  8
MED-1
  6
CONTINUOUS
 62
40
 10
3.0001715E+002
 20
2.7309308E+002
 40
4.6868783
 50
2.4570623E+002
 51
2.4773225E+002
  0
ARC
  8
MED-1
  6
CONTINUOUS
 62
40
 10
2.9972668E+002
 20
2.7243214E+002
 40
3.9649732
 50
2.4314489E+002
 51
2.456025E+002
  0
ARC
  8
MED-1
  6
CONTINUOUS
 62
40
 10
3.0009188E+002
 20
2.7333724E+002
 40
4.9381325
 50
2.4225205E+002
 51
2.4410858E+002
  0
ARC
  8
MED-1
  6
CONTINUOUS
 62
40
 10
3.0426777E+002
 20
2.8133566E+002
 40
1.3961015E+001
 50
2.4177296E+002
 51
2.4236799E+002
  0
ARC
  8
MED-1
  6
CONTINUOUS
 62
40
 10
2.9972865E+002
 20
2.725049E+002
 40
4.0374599
 50
2.3658323E+002
 51
2.392557E+002
  0
ARC
  8
MED-1
  6
CONTINUOUS
 62
40
 10
2.9950936E+002
 20
2.7219708E+002
 40
3.6597724
 50
2.3219282E+002
 51
2.3679483E+002
  0
ARC
  8
MED-1
  6
CONTINUOUS
 62
40
 10
3.0319913E+002
 20
2.7748889E+002
 40
1.0107922E+001
 50
2.3185911E+002
 51
2.3405639E+002
  0
LINE
  8
MED-1
  6
CONTINUOUS
 62
40
 10
3.0003302E+002
 20
2.6914637E+002
 11
2.9988696E+002
 21
2.6914897E+002
  0
ARC
  8
MED-1
  6
CONTINUOUS
 62
40
 10
3.0003469E+002
 20
2.7340414E+002
 40
4.2577323
 50
2.6606572E+002
 51
2.6801159E+002
  0
ARC
  8
MED-1
  6
CONTINUOUS
 62
40
 10
3.0003156E+002
 20
2.7325865E+002
 40
4.1123802
 50
2.6397486E+002
 51
2.6597025E+002
  0
ARC
  8
MED-1
  6
CONTINUOUS
 62
40
 10
3.0002089E+002
 20
2.7316796E+002
 40
4.0210735
 50
2.6196568E+002
 51
2.6399035E+002
  0
ARC
  8
MED-1
  6
CONTINUOUS
 62
40
 10
3.000202E+002
 20
2.7313605E+002
 40
3.9893757
 50
2.598849E+002
 51
2.6191145E+002
  0
ARC
  8
MED-1
  6
CONTINUOUS
 62
40
 10
3.0001397E+002
 20
2.7311612E+002
 40
3.9686668
 50
2.5789778E+002
 51
2.5992295E+002
  0
ARC
  8
MED-1
  6
CONTINUOUS
 62
40
 10
3.000182E+002
 20
2.7311922E+002
 40
3.9725872
 50
2.5583462E+002
 51
2.5784749E+002
  0
ARC
  8
MED-1
  6
CONTINUOUS
 62
40
 10
3.0000831E+002
 20
2.730831E+002
 40
3.9351377
 50
2.5381821E+002
 51
2.5584552E+002
  0
ARC
  8
MED-1
  6
CONTINUOUS
 62
40
 10
2.9999495E+002
 20
2.7302582E+002
 40
3.8764107
 50
2.5171554E+002
 51
2.5377197E+002
  0
ARC
  8
MED-1
  6
CONTINUOUS
 62
40
 10
3.0002345E+002
 20
2.7314378E+002
 40
3.9973634
 50
2.49874E+002
 51
2.5185808E+002
  0
ARC
  8
MED-1
  6
CONTINUOUS
 62
40
 10
3.0013321E+002
 20
2.7344109E+002
 40
4.3142848
 50
2.4803655E+002
 51
2.4986391E+002
  0
ARC
  8
MED-1
  6
CONTINUOUS
 62
40
 10
3.0001953E+002
 20
2.7310298E+002
 40
3.958255
 50
2.4570611E+002
 51
2.4773223E+002
  0
ARC
  8
MED-1
  6
CONTINUOUS
 62
40
 10
2.9977404E+002
 20
2.7254441E+002
 40
3.3481617
 50
2.4314436E+002
 51
2.456024E+002
  0
ARC
  8
MED-1
  6
CONTINUOUS
 62
40
 10
3.0008237E+002
 20
2.7330846E+002
 40
4.1696748
 50
2.4225052E+002
 51
2.4410739E+002
  0
ARC
  8
MED-1
  6
CONTINUOUS
 62
40
 10
3.0361144E+002
 20
2.8006824E+002
 40
1.1795207E+001
 50
2.4177318E+002
 51
2.4236806E+002
  0
ARC
  8
MED-1
  6
CONTINUOUS
 62
40
 10
2.9977535E+002
 20
2.7260528E+002
 40
3.4086908
 50
2.3658113E+002
 51
2.3925458E+002
  0
ARC
  8
MED-1
  6
CONTINUOUS
 62
40
 10
2.9959017E+002
 20
2.7234507E+002
 40
3.0895375
 50
2.3218539E+002
 51
2.367897E+002
  0
ARC
  8
MED-1
  6
CONTINUOUS
 62
40
 10
3.0270529E+002
 20
2.7681205E+002
 40
8.532872
 50
2.3185275E+002
 51
2.3405113E+002
  0
LINE
  8
MED-1
  6
CONTINUOUS
 62
40
 10
2.969565E+002
 20
2.6953907E+002
 11
2.969452E+002
 21
2.6954859E+002
  0
ARC
  8
MED-1
  6
CONTINUOUS
 62
40
 10
2.9596182E+002
 20
2.6836919E+002
 40
1.5355867
 50
5.0178631E+001
 51
5.0696498E+001
  0
ARC
  8
MED-1
  6
CONTINUOUS
 62
40
 10
2.9614415E+002
 20
2.6858807E+002
 40
1.2507263
 50
5.0808572E+001
 51
5.140246E+001
  0
ARC
  8
MED-1
  6
CONTINUOUS
 62
40
 10
2.9628044E+002
 20
2.687571E+002
 40
1.0336027
 50
5.1461535E+001
 51
5.2133791E+001
  0
ARC
  8
MED-1
  6
CONTINUOUS
 62
40
 10
2.9636959E+002
 20
2.6887089E+002
 40
8.8904782E-001
 50
5.2168206E+001
 51
5.2898169E+001
  0
ARC
  8
MED-1
  6
CONTINUOUS
 62
40
 10
2.9643778E+002
 20
2.6895972E+002
 40
7.7705764E-001
 50
5.2957234E+001
 51
5.3736617E+001
  0
ARC
  8
MED-1
  6
CONTINUOUS
 62
40
 10
2.9648383E+002
 20
2.6902041E+002
 40
7.008952E-001
 50
5.3837084E+001
 51
5.4639992E+001
  0
ARC
  8
MED-1
  6
CONTINUOUS
 62
40
 10
2.9656326E+002
 20
2.691303E+002
 40
5.6530546E-001
 50
5.4760529E+001
 51
5.5700719E+001
  0
ARC
  8
MED-1
  6
CONTINUOUS
 62
40
 10
2.9663922E+002
 20
2.6923935E+002
 40
4.3241601E-001
 50
5.5871809E+001
 51
5.7037154E+001
  0
ARC
  8
MED-1
  6
CONTINUOUS
 62
40
 10
2.9663266E+002
 20
2.6923395E+002
 40
4.405232E-001
 50
5.6703906E+001
 51
5.7729603E+001
  0
ARC
  8
MED-1
  6
CONTINUOUS
 62
40
 10
2.9646907E+002
 20
2.6897611E+002
 40
7.4587689E-001
 50
5.7679239E+001
 51
5.8203133E+001
  0
ARC
  8
MED-1
  6
CONTINUOUS
 62
40
 10
2.9670431E+002
 20
2.6934253E+002
 40
3.1058211E-001
 50
5.9469723E+001
 51
6.0913372E+001
  0
ARC
  8
MED-1
  6
CONTINUOUS
 62
40
 10
2.9673801E+002
 20
2.6940202E+002
 40
2.4220825E-001
 50
6.1039162E+001
 51
6.3638087E+001
  0
ARC
  8
MED-1
  6
CONTINUOUS
 62
40
 10
2.9660446E+002
 20
2.6915295E+002
 40
5.2475653E-001
 50
6.2647841E+001
 51
6.4147429E+001
  0
LINE
  8
MED-1
  6
CONTINUOUS
 62
40
 10
2.9743466E+002
 20
2.7010158E+002
 11
2.9740775E+002
 21
2.7012381E+002
  0
ARC
  8
MED-1
  6
CONTINUOUS
 62
40
 10
2.9658231E+002
 20
2.6909796E+002
 40
1.3167097
 50
5.1178618E+001
 51
5.2685371E+001
  0
ARC
  8
MED-1
  6
CONTINUOUS
 62
40
 10
2.9660532E+002
 20
2.6912555E+002
 40
1.2808214
 50
5.2755471E+001
 51
5.4292063E+001
  0
ARC
  8
MED-1
  6
CONTINUOUS
 62
40
 10
2.9661885E+002
 20
2.6914521E+002
 40
1.2569586
 50
5.4270085E+001
 51
5.5825653E+001
  0
ARC
  8
MED-1
  6
CONTINUOUS
 62
40
 10
2.9662592E+002
 20
2.6915364E+002
 40
1.2460141
 50
5.5876972E+001
 51
5.7436414E+001
  0
ARC
  8
MED-1
  6
CONTINUOUS
 62
40
 10
2.9662994E+002
 20
2.6916097E+002
 40
1.2376739
 50
5.7410602E+001
 51
5.897135E+001
  0
ARC
  8
MED-1
  6
CONTINUOUS
 62
40
 10
2.9663149E+002
 20
2.6916186E+002
 40
1.236113
 50
5.9011565E+001
 51
6.0566537E+001
  0
ARC
  8
MED-1
  6
CONTINUOUS
 62
40
 10
2.9663947E+002
 20
2.6917573E+002
 40
1.2201121
 50
6.0572852E+001
 51
6.214333E+001
  0
ARC
  8
MED-1
  6
CONTINUOUS
 62
40
 10
2.9665145E+002
 20
2.6919665E+002
 40
1.1960163
 50
6.2182556E+001
 51
6.3781316E+001
  0
ARC
  8
MED-1
  6
CONTINUOUS
 62
40
 10
2.9663705E+002
 20
2.6917271E+002
 40
1.2238562
 50
6.3671434E+001
 51
6.5223549E+001
  0
ARC
  8
MED-1
  6
CONTINUOUS
 62
40
 10
2.9660339E+002
 20
2.6909863E+002
 40
1.30522
 50
6.5244604E+001
 51
6.6688969E+001
  0
ARC
  8
MED-1
  6
CONTINUOUS
 62
40
 10
2.9664641E+002
 20
2.6918763E+002
 40
1.2064724
 50
6.6892865E+001
 51
6.8477617E+001
  0
ARC
  8
MED-1
  6
CONTINUOUS
 62
40
 10
2.9670775E+002
 20
2.6934033E+002
 40
1.0419151
 50
6.8534757E+001
 51
7.0412085E+001
  0
ARC
  8
MED-1
  6
CONTINUOUS
 62
40
 10
2.9660639E+002
 20
2.6910522E+002
 40
1.297506
 50
6.9675794E+001
 51
7.1091114E+001
  0
ARC
  8
MED-1
  6
CONTINUOUS
 62
40
 10
2.9585475E+002
 20
2.669256E+002
 40
3.6030852
 50
7.1015803E+001
 51
7.1476784E+001
  0
ARC
  8
MED-1
  6
CONTINUOUS
 62
40
 10
2.9669553E+002
 20
2.6932487E+002
 40
1.0615833
 50
7.3366259E+001
 51
7.5380008E+001
  0
ARC
  8
MED-1
  6
CONTINUOUS
 62
40
 10
2.9672389E+002
 20
2.6944158E+002
 40
9.4149625E-001
 50
7.5257102E+001
 51
7.8770034E+001
  0
ARC
  8
MED-1
  6
CONTINUOUS
 62
40
 10
2.96351E+002
 20
2.678834E+002
 40
2.5432237
 50
7.7366389E+001
 51
7.9073593E+001
  0
LINE
  8
MED-1
  6
CONTINUOUS
 62
40
 10
2.9683306E+002
 20
2.6965812E+002
 11
2.7800795E+002
 21
2.6965812E+002
  0
LINE
  8
MED-1
  6
CONTINUOUS
 62
40
 10
2.7716184E+002
 20
2.7665811E+002
 11
2.9683303E+002
 21
2.7665841E+002
  0
LINE
  8
MED-1
  6
CONTINUOUS
 62
40
 10
2.9683306E+002
 20
2.7598462E+002
 11
2.9685281E+002
 21
2.7599148E+002
  0
ARC
  8
MED-1
  6
CONTINUOUS
 62
40
 10
2.9642964E+002
 20
2.7717781E+002
 40
1.2595459
 50
2.8963145E+002
 51
2.9058286E+002
  0
ARC
  8
MED-1
  6
CONTINUOUS
 62
40
 10
2.9642368E+002
 20
2.771917E+002
 40
1.2746414
 50
2.9061423E+002
 51
2.9155512E+002
  0
ARC
  8
MED-1
  6
CONTINUOUS
 62
40
 10
2.9642784E+002
 20
2.7718238E+002
 40
1.2644526
 50
2.9153509E+002
 51
2.9248424E+002
  0
ARC
  8
MED-1
  6
CONTINUOUS
 62
40
 10
2.9644118E+002
 20
2.7714761E+002
 40
1.22722
 50
2.9252969E+002
 51
2.9350872E+002
  0
ARC
  8
MED-1
  6
CONTINUOUS
 62
40
 10
2.9644517E+002
 20
2.7713853E+002
 40
1.2173006
 50
2.9350717E+002
 51
2.9449539E+002
  0
ARC
  8
MED-1
  6
CONTINUOUS
 62
40
 10
2.964405E+002
 20
2.7714784E+002
 40
1.2277111
 50
2.9451348E+002
 51
2.9549395E+002
  0
ARC
  8
MED-1
  6
CONTINUOUS
 62
40
 10
2.9644383E+002
 20
2.7714004E+002
 40
1.2192352
 50
2.9551056E+002
 51
2.965009E+002
  0
ARC
  8
MED-1
  6
CONTINUOUS
 62
40
 10
2.9645539E+002
 20
2.7711608E+002
 40
1.1926387
 50
2.9651741E+002
 51
2.9753347E+002
  0
ARC
  8
MED-1
  6
CONTINUOUS
 62
40
 10
2.9644219E+002
 20
2.7714448E+002
 40
1.223919
 50
2.9746652E+002
 51
2.9845499E+002
  0
ARC
  8
MED-1
  6
CONTINUOUS
 62
40
 10
2.9640244E+002
 20
2.7721666E+002
 40
1.3063256
 50
2.984795E+002
 51
2.9940221E+002
  0
ARC
  8
MED-1
  6
CONTINUOUS
 62
40
 10
2.9645105E+002
 20
2.7712429E+002
 40
1.2019925
 50
2.9954533E+002
 51
3.005675E+002
  0
ARC
  8
MED-1
  6
CONTINUOUS
 62
40
 10
2.9653718E+002
 20
2.7697694E+002
 40
1.0313174
 50
3.0061046E+002
 51
3.0183443E+002
  0
ARC
  8
MED-1
  6
CONTINUOUS
 62
40
 10
2.9641118E+002
 20
2.7719986E+002
 40
1.2872044
 50
3.0136535E+002
 51
3.0228792E+002
  0
ARC
  8
MED-1
  6
CONTINUOUS
 62
40
 10
2.9521772E+002
 20
2.7909585E+002
 40
3.5275486
 50
3.0222512E+002
 51
3.0252995E+002
  0
ARC
  8
MED-1
  6
CONTINUOUS
 62
40
 10
2.9652459E+002
 20
2.7700532E+002
 40
1.0624782
 50
3.037341E+002
 51
3.0504502E+002
  0
ARC
  8
MED-1
  6
CONTINUOUS
 62
40
 10
2.9658367E+002
 20
2.7692359E+002
 40
9.6163213E-001
 50
3.0495919E+002
 51
3.0720721E+002
  0
ARC
  8
MED-1
  6
CONTINUOUS
 62
40
 10
2.9561301E+002
 20
2.782705E+002
 40
2.6216747
 50
3.0630252E+002
 51
3.0738644E+002
  0
LINE
  8
MED-1
  6
CONTINUOUS
 62
40
 10
2.9720486E+002
 20
2.7618743E+002
 11
2.973219E+002
 21
2.7627734E+002
  0
ARC
  8
MED-1
  6
CONTINUOUS
 62
40
 10
3.0001882E+002
 20
2.7264785E+002
 40
4.52179
 50
1.2476158E+002
 51
1.2661441E+002
  0
ARC
  8
MED-1
  6
CONTINUOUS
 62
40
 10
2.9993362E+002
 20
2.72759E+002
 40
4.3818995
 50
1.2277968E+002
 51
1.2467501E+002
  0
ARC
  8
MED-1
  6
CONTINUOUS
 62
40
 10
2.9988554E+002
 20
2.7283579E+002
 40
4.2913134
 50
1.2087379E+002
 51
1.2279511E+002
  0
ARC
  8
MED-1
  6
CONTINUOUS
 62
40
 10
2.9986415E+002
 20
2.7286372E+002
 40
4.2563626
 50
1.1889484E+002
 51
1.2081958E+002
  0
ARC
  8
MED-1
  6
CONTINUOUS
 62
40
 10
2.9985579E+002
 20
2.728844E+002
 40
4.2342209
 50
1.1700678E+002
 51
1.1893104E+002
  0
ARC
  8
MED-1
  6
CONTINUOUS
 62
40
 10
2.9985438E+002
 20
2.7287936E+002
 40
4.2380728
 50
1.1504523E+002
 51
1.169588E+002
  0
ARC
  8
MED-1
  6
CONTINUOUS
 62
40
 10
2.9983696E+002
 20
2.7291723E+002
 40
4.196385
 50
1.131201E+002
 51
1.1504871E+002
  0
ARC
  8
MED-1
  6
CONTINUOUS
 62
40
 10
2.9980809E+002
 20
2.7297749E+002
 40
4.1296255
 50
1.1112132E+002
 51
1.1307995E+002
  0
ARC
  8
MED-1
  6
CONTINUOUS
 62
40
 10
2.9986226E+002
 20
2.7286462E+002
 40
4.254451
 50
1.093624E+002
 51
1.1125412E+002
  0
ARC
  8
MED-1
  6
CONTINUOUS
 62
40
 10
2.9997041E+002
 20
2.7255301E+002
 40
4.5842867
 50
1.0760138E+002
 51
1.0934639E+002
  0
ARC
  8
MED-1
  6
CONTINUOUS
 62
40
 10
2.9983541E+002
 20
2.7290875E+002
 40
4.2044368
 50
1.0537832E+002
 51
1.0731379E+002
  0
ARC
  8
MED-1
  6
CONTINUOUS
 62
40
 10
2.9965774E+002
 20
2.7353062E+002
 40
3.5577185
 50
1.0292874E+002
 51
1.0527537E+002
  0
ARC
  8
MED-1
  6
CONTINUOUS
 62
40
 10
2.9992221E+002
 20
2.7269896E+002
 40
4.4280525
 50
1.0208281E+002
 51
1.0385629E+002
  0
ARC
  8
MED-1
  6
CONTINUOUS
 62
40
 10
3.016306E+002
 20
2.6482646E+002
 40
1.2483768E+001
 50
1.0161676E+002
 51
1.021867E+002
  0
ARC
  8
MED-1
  6
CONTINUOUS
 62
40
 10
2.9969601E+002
 20
2.7348399E+002
 40
3.6171989
 50
9.6661872E+001
 51
9.9214096E+001
  0
ARC
  8
MED-1
  6
CONTINUOUS
 62
40
 10
2.9966707E+002
 20
2.7382875E+002
 40
3.2714371
 50
9.2458936E+001
 51
9.6858818E+001
  0
ARC
  8
MED-1
  6
CONTINUOUS
 62
40
 10
3.0019267E+002
 20
2.6811161E+002
 40
9.0102017
 50
9.2133274E+001
 51
9.4238674E+001
  0
LINE
  8
MED-1
  6
CONTINUOUS
 62
40
 10
2.9985727E+002
 20
2.7711557E+002
 11
3.0008618E+002
 21
2.771156E+002
  0
LINE
  8
MED-1
  6
CONTINUOUS
 62
40
 10
3.0008618E+002
 20
2.771156E+002
 11
3.0031505E+002
 21
2.7711568E+002
  0
LINE
  8
MED-1
  6
CONTINUOUS
 62
40
 10
3.0031505E+002
 20
2.7711568E+002
 11
3.0054382E+002
 21
2.7711581E+002
  0
LINE
  8
MED-1
  6
CONTINUOUS
 62
40
 10
3.0054382E+002
 20
2.7711581E+002
 11
3.0077283E+002
 21
2.7711598E+002
  0
LINE
  8
MED-1
  6
CONTINUOUS
 62
40
 10
3.0077283E+002
 20
2.7711598E+002
 11
3.0100218E+002
 21
2.771162E+002
  0
LINE
  8
MED-1
  6
CONTINUOUS
 62
40
 10
3.0100218E+002
 20
2.771162E+002
 11
3.012306E+002
 21
2.7711647E+002
  0
LINE
  8
MED-1
  6
CONTINUOUS
 62
40
 10
3.012306E+002
 20
2.7711647E+002
 11
3.0145766E+002
 21
2.7711677E+002
  0
LINE
  8
MED-1
  6
CONTINUOUS
 62
40
 10
3.0145766E+002
 20
2.7711677E+002
 11
3.0168837E+002
 21
2.7711712E+002
  0
LINE
  8
MED-1
  6
CONTINUOUS
 62
40
 10
3.0168837E+002
 20
2.7711712E+002
 11
3.0192447E+002
 21
2.7711753E+002
  0
LINE
  8
MED-1
  6
CONTINUOUS
 62
40
 10
3.0192447E+002
 20
2.7711753E+002
 11
3.0214614E+002
 21
2.7711794E+002
  0
LINE
  8
MED-1
  6
CONTINUOUS
 62
40
 10
3.0214614E+002
 20
2.7711794E+002
 11
3.0234654E+002
 21
2.7711834E+002
  0
LINE
  8
MED-1
  6
CONTINUOUS
 62
40
 10
3.0234654E+002
 20
2.7711834E+002
 11
3.0260391E+002
 21
2.7711892E+002
  0
LINE
  8
MED-1
  6
CONTINUOUS
 62
40
 10
3.0260391E+002
 20
2.7711892E+002
 11
3.0300031E+002
 21
2.7711993E+002
  0
LINE
  8
MED-1
  6
CONTINUOUS
 62
40
 10
3.0300031E+002
 20
2.7711993E+002
 11
3.0351944E+002
 21
2.7712131E+002
  0
LINE
  8
MED-1
  6
CONTINUOUS
 62
40
 10
2.9683306E+002
 20
2.7665839E+002
 11
2.9685343E+002
 21
2.7663258E+002
  0
LINE
  8
MED-1
  6
CONTINUOUS
 62
40
 10
2.9685343E+002
 20
2.7663258E+002
 11
2.9687572E+002
 21
2.7660434E+002
  0
LINE
  8
MED-1
  6
CONTINUOUS
 62
40
 10
2.9687572E+002
 20
2.7660434E+002
 11
2.9689988E+002
 21
2.7657374E+002
  0
LINE
  8
MED-1
  6
CONTINUOUS
 62
40
 10
2.9689988E+002
 20
2.7657374E+002
 11
2.9692666E+002
 21
2.7653982E+002
  0
LINE
  8
MED-1
  6
CONTINUOUS
 62
40
 10
2.9692666E+002
 20
2.7653982E+002
 11
2.969564E+002
 21
2.7650215E+002
  0
LINE
  8
MED-1
  6
CONTINUOUS
 62
40
 10
2.969564E+002
 20
2.7650215E+002
 11
2.9698552E+002
 21
2.7646526E+002
  0
LINE
  8
MED-1
  6
CONTINUOUS
 62
40
 10
2.9698552E+002
 20
2.7646526E+002
 11
2.9701286E+002
 21
2.7643063E+002
  0
LINE
  8
MED-1
  6
CONTINUOUS
 62
40
 10
2.9701286E+002
 20
2.7643063E+002
 11
2.9705187E+002
 21
2.7638122E+002
  0
LINE
  8
MED-1
  6
CONTINUOUS
 62
40
 10
2.9705187E+002
 20
2.7638122E+002
 11
2.9711683E+002
 21
2.7629893E+002
  0
LINE
  8
MED-1
  6
CONTINUOUS
 62
40
 10
2.9711683E+002
 20
2.7629893E+002
 11
2.9720486E+002
 21
2.7618743E+002
  0
LINE
  8
MED-1
  6
CONTINUOUS
 62
40
 10
2.9985999E+002
 20
2.7785382E+002
 11
2.9985727E+002
 21
2.7711557E+002
  0
ARC
  8
MED-1
  6
CONTINUOUS
 62
40
 10
2.9985998E+002
 20
2.728538E+002
 40
5.0
 50
8.999989E+001
 51
1.2725694E+002
  0
LINE
  8
MED-1
  6
CONTINUOUS
 62
40
 10
2.9985999E+002
 20
2.7785382E+002
 11
3.044971E+002
 21
2.7787064E+002
  0
LINE
  8
MED-1
  6
CONTINUOUS
 62
40
 10
3.5033303E+002
 20
2.7315815E+002
 11
3.5033303E+002
 21
2.7535815E+002
  0
LINE
  8
MED-1
  6
CONTINUOUS
 62
40
 10
3.5033303E+002
 20
2.7095815E+002
 11
3.5033303E+002
 21
2.7315815E+002
  0
LINE
  8
MED-1
  6
CONTINUOUS
 62
40
 10
3.3103303E+002
 20
2.7315815E+002
 11
3.3103303E+002
 21
2.6920815E+002
  0
LINE
  8
MED-1
  6
CONTINUOUS
 62
40
 10
3.3103303E+002
 20
2.7710815E+002
 11
3.3103303E+002
 21
2.7315815E+002
  0
LINE
  8
MED-1
  6
CONTINUOUS
 62
40
 10
3.5033306E+002
 20
2.7095814E+002
 11
3.5003299E+002
 21
2.7065815E+002
  0
LINE
  8
MED-1
  6
CONTINUOUS
 62
40
 10
3.5003299E+002
 20
2.7315815E+002
 11
3.5003299E+002
 21
2.7065815E+002
  0
LINE
  8
MED-1
  6
CONTINUOUS
 62
40
 10
3.5003299E+002
 20
2.7565814E+002
 11
3.5003299E+002
 21
2.7315815E+002
  0
LINE
  8
MED-1
  6
CONTINUOUS
 62
40
 10
3.5003299E+002
 20
2.7565814E+002
 11
3.5033306E+002
 21
2.7535815E+002
  0
LINE
  8
MED-1
  6
CONTINUOUS
 62
40
 10
3.3133302E+002
 20
2.7315815E+002
 11
3.3133302E+002
 21
2.7740816E+002
  0
LINE
  8
MED-1
  6
CONTINUOUS
 62
40
 10
3.3133302E+002
 20
2.6890813E+002
 11
3.3133302E+002
 21
2.7315815E+002
  0
LINE
  8
MED-1
  6
CONTINUOUS
 62
40
 10
3.3133302E+002
 20
2.7740816E+002
 11
3.3433304E+002
 21
2.7740816E+002
  0
LINE
  8
MED-1
  6
CONTINUOUS
 62
40
 10
3.3433304E+002
 20
2.6890813E+002
 11
3.3133302E+002
 21
2.6890813E+002
  0
LINE
  8
MED-1
  6
CONTINUOUS
 62
40
 10
3.5003299E+002
 20
2.7065815E+002
 11
3.3633302E+002
 21
2.7065815E+002
  0
LINE
  8
MED-1
  6
CONTINUOUS
 62
40
 10
3.3633302E+002
 20
2.7565814E+002
 11
3.5003299E+002
 21
2.7565814E+002
  0
LINE
  8
MED-1
  6
CONTINUOUS
 62
40
 10
3.3133302E+002
 20
2.6890813E+002
 11
3.313151E+002
 21
2.6890865E+002
  0
ARC
  8
MED-1
  6
CONTINUOUS
 62
40
 10
3.3133165E+002
 20
2.6918857E+002
 40
2.8041036E-001
 50
2.6288609E+002
 51
2.6661708E+002
  0
ARC
  8
MED-1
  6
CONTINUOUS
 62
40
 10
3.3133415E+002
 20
2.6921308E+002
 40
3.0503748E-001
 50
2.5947651E+002
 51
2.6298923E+002
  0
ARC
  8
MED-1
  6
CONTINUOUS
 62
40
 10
3.3133629E+002
 20
2.6922491E+002
 40
3.1706532E-001
 50
2.5604193E+002
 51
2.5948726E+002
  0
ARC
  8
MED-1
  6
CONTINUOUS
 62
40
 10
3.3133521E+002
 20
2.6921487E+002
 40
3.0705904E-001
 50
2.5216189E+002
 51
2.5578516E+002
  0
ARC
  8
MED-1
  6
CONTINUOUS
 62
40
 10
3.3133454E+002
 20
2.6921269E+002
 40
3.047772E-001
 50
2.4845281E+002
 51
2.5215739E+002
  0
ARC
  8
MED-1
  6
CONTINUOUS
 62
40
 10
3.3133542E+002
 20
2.6921304E+002
 40
3.0542888E-001
 50
2.4457189E+002
 51
2.4832358E+002
  0
ARC
  8
MED-1
  6
CONTINUOUS
 62
40
 10
3.3133565E+002
 20
2.6921377E+002
 40
3.061851E-001
 50
2.4080823E+002
 51
2.44591E+002
  0
ARC
  8
MED-1
  6
CONTINUOUS
 62
40
 10
3.3133528E+002
 20
2.6921121E+002
 40
3.0377374E-001
 50
2.3678381E+002
 51
2.4063388E+002
  0
ARC
  8
MED-1
  6
CONTINUOUS
 62
40
 10
3.3133515E+002
 20
2.6921162E+002
 40
3.0404515E-001
 50
2.3297367E+002
 51
2.368458E+002
  0
ARC
  8
MED-1
  6
CONTINUOUS
 62
40
 10
3.3133589E+002
 20
2.6921143E+002
 40
3.0433578E-001
 50
2.2895445E+002
 51
2.3284168E+002
  0
ARC
  8
MED-1
  6
CONTINUOUS
 62
40
 10
3.313345E+002
 20
2.6921003E+002
 40
3.0237185E-001
 50
2.2505287E+002
 51
2.289779E+002
  0
ARC
  8
MED-1
  6
CONTINUOUS
 62
40
 10
3.3133129E+002
 20
2.6920574E+002
 40
2.9706876E-001
 50
2.2090882E+002
 51
2.2490687E+002
  0
ARC
  8
MED-1
  6
CONTINUOUS
 62
40
 10
3.3133419E+002
 20
2.6920978E+002
 40
3.0190478E-001
 50
2.1721574E+002
 51
2.2112838E+002
  0
ARC
  8
MED-1
  6
CONTINUOUS
 62
40
 10
3.3134593E+002
 20
2.6921835E+002
 40
3.1643519E-001
 50
2.1346611E+002
 51
2.1716585E+002
  0
ARC
  8
MED-1
  6
CONTINUOUS
 62
40
 10
3.3133E+002
 20
2.6920532E+002
 40
2.9597588E-001
 50
2.090856E+002
 51
2.13062E+002
  0
ARC
  8
MED-1
  6
CONTINUOUS
 62
40
 10
3.3129926E+002
 20
2.6918761E+002
 40
2.604978E-001
 50
2.0440849E+002
 51
2.0896885E+002
  0
ARC
  8
MED-1
  6
CONTINUOUS
 62
40
 10
3.3133924E+002
 20
2.692147E+002
 40
3.0821103E-001
 50
2.0230605E+002
 51
2.0592388E+002
  0
ARC
  8
MED-1
  6
CONTINUOUS
 62
40
 10
3.3162115E+002
 20
2.6933302E+002
 40
6.1393744E-001
 50
2.0089688E+002
 51
2.0253636E+002
  0
ARC
  8
MED-1
  6
CONTINUOUS
 62
40
 10
3.3130023E+002
 20
2.6919163E+002
 40
2.6428833E-001
 50
1.9239051E+002
 51
1.970723E+002
  0
ARC
  8
MED-1
  6
CONTINUOUS
 62
40
 10
3.3127287E+002
 20
2.6918654E+002
 40
2.3647093E-001
 50
1.8481037E+002
 51
1.9260881E+002
  0
ARC
  8
MED-1
  6
CONTINUOUS
 62
40
 10
3.3162283E+002
 20
2.6924701E+002
 40
5.9107578E-001
 50
1.8377179E+002
 51
1.8780825E+002
  0
LINE
  8
MED-1
  6
CONTINUOUS
 62
40
 10
3.3103303E+002
 20
2.7710816E+002
 11
3.3103355E+002
 21
2.7712609E+002
  0
ARC
  8
MED-1
  6
CONTINUOUS
 62
40
 10
3.3131339E+002
 20
2.771097E+002
 40
2.8031978E-001
 50
1.7291684E+002
 51
1.7664884E+002
  0
ARC
  8
MED-1
  6
CONTINUOUS
 62
40
 10
3.3133772E+002
 20
2.7710705E+002
 40
3.0479065E-001
 50
1.6947134E+002
 51
1.7298505E+002
  0
ARC
  8
MED-1
  6
CONTINUOUS
 62
40
 10
3.3134972E+002
 20
2.7710491E+002
 40
3.1697531E-001
 50
1.6604144E+002
 51
1.6948775E+002
  0
ARC
  8
MED-1
  6
CONTINUOUS
 62
40
 10
3.3133967E+002
 20
2.7710615E+002
 40
3.0692865E-001
 50
1.6218975E+002
 51
1.6581405E+002
  0
ARC
  8
MED-1
  6
CONTINUOUS
 62
40
 10
3.3133749E+002
 20
2.7710667E+002
 40
3.0469277E-001
 50
1.5845229E+002
 51
1.621579E+002
  0
ARC
  8
MED-1
  6
CONTINUOUS
 62
40
 10
3.3133769E+002
 20
2.7710595E+002
 40
3.0514626E-001
 50
1.5458622E+002
 51
1.5833891E+002
  0
ARC
  8
MED-1
  6
CONTINUOUS
 62
40
 10
3.3133873E+002
 20
2.7710541E+002
 40
3.0631231E-001
 50
1.5079557E+002
 51
1.545793E+002
  0
ARC
  8
MED-1
  6
CONTINUOUS
 62
40
 10
3.3133603E+002
 20
2.7710609E+002
 40
3.0362669E-001
 50
1.4680736E+002
 51
1.5065832E+002
  0
ARC
  8
MED-1
  6
CONTINUOUS
 62
40
 10
3.3133644E+002
 20
2.7710592E+002
 40
3.0406722E-001
 50
1.4295045E+002
 51
1.4682339E+002
  0
ARC
  8
MED-1
  6
CONTINUOUS
 62
40
 10
3.3133626E+002
 20
2.7710548E+002
 40
3.0418661E-001
 50
1.3897564E+002
 51
1.4286358E+002
  0
ARC
  8
MED-1
  6
CONTINUOUS
 62
40
 10
3.3133472E+002
 20
2.771067E+002
 40
3.0222153E-001
 50
1.3503372E+002
 51
1.3895931E+002
  0
ARC
  8
MED-1
  6
CONTINUOUS
 62
40
 10
3.3133073E+002
 20
2.7710991E+002
 40
2.9713827E-001
 50
1.3092888E+002
 51
1.349273E+002
  0
ARC
  8
MED-1
  6
CONTINUOUS
 62
40
 10
3.3133464E+002
 20
2.7710686E+002
 40
3.0199921E-001
 50
1.2719806E+002
 51
1.3111096E+002
  0
ARC
  8
MED-1
  6
CONTINUOUS
 62
40
 10
3.3134322E+002
 20
2.7709527E+002
 40
3.164215E-001
 50
1.2346603E+002
 51
1.2716593E+002
  0
ARC
  8
MED-1
  6
CONTINUOUS
 62
40
 10
3.3133019E+002
 20
2.7711132E+002
 40
2.9585019E-001
 50
1.1909999E+002
 51
1.2307642E+002
  0
ARC
  8
MED-1
  6
CONTINUOUS
 62
40
 10
3.3131249E+002
 20
2.7714179E+002
 40
2.6061959E-001
 50
1.1439616E+002
 51
1.1895635E+002
  0
ARC
  8
MED-1
  6
CONTINUOUS
 62
40
 10
3.313396E+002
 20
2.7710192E+002
 40
3.0823548E-001
 50
1.1230619E+002
 51
1.1592374E+002
  0
ARC
  8
MED-1
  6
CONTINUOUS
 62
40
 10
3.3145793E+002
 20
2.7681998E+002
 40
6.1400079E-001
 50
1.1089696E+002
 51
1.1253627E+002
  0
ARC
  8
MED-1
  6
CONTINUOUS
 62
40
 10
3.3131653E+002
 20
2.7714079E+002
 40
2.6443979E-001
 50
1.0238406E+002
 51
1.0706526E+002
  0
ARC
  8
MED-1
  6
CONTINUOUS
 62
40
 10
3.3131144E+002
 20
2.7716827E+002
 40
2.3651374E-001
 50
9.4811077E+001
 51
1.0260811E+002
  0
ARC
  8
MED-1
  6
CONTINUOUS
 62
40
 10
3.3137206E+002
 20
2.7681823E+002
 40
5.9122232E-001
 50
9.3785931E+001
 51
9.7821489E+001
  0
LINE
  8
104
  6
CONTINUOUS
 62
1
 10
3.5033303E+002
 20
2.7535818E+002
 11
3.3633303E+002
 21
2.7535818E+002
  0
LINE
  8
104
  6
CONTINUOUS
 62
1
 10
3.5033303E+002
 20
2.7095811E+002
 11
3.3633303E+002
 21
2.7095811E+002
  0
ARC
  8
MED-1
  6
CONTINUOUS
 62
40
 10
3.2433303E+002
 20
2.6974149E+002
 40
6.0833333
 50
2.7E+002
 51
3.1111209E+002
  0
ARC
  8
MED-1
  6
CONTINUOUS
 62
40
 10
3.2433303E+002
 20
2.6974149E+002
 40
6.0833332
 50
2.2888791E+002
 51
2.7E+002
  0
LINE
  8
106
  6
CENTERLINE
 62
1
 10
3.5478744E+002
 20
2.7315815E+002
 11
2.7737337E+002
 21
2.7315815E+002
  0
LINE
  8
MED-1
  6
CONTINUOUS
 62
40
 10
1.0834609E+002
 20
2.4265815E+002
 11
1.0834609E+002
 21
2.5015815E+002
  0
LINE
  8
104
  6
CONTINUOUS
 62
1
 10
1.0834609E+002
 20
2.5015815E+002
 11
1.2077109E+002
 21
2.5015815E+002
  0
LINE
  8
106
  6
CENTERLINE
 62
1
 10
8.7846188E+001
 20
2.5770915E+002
 11
8.7846188E+001
 21
2.3917015E+002
  0
CIRCLE
  8
104
  6
CONTINUOUS
 62
40
 10
8.7846188E+001
 20
2.1265815E+002
 40
6.0
  0
LINE
  8
104
  6
CONTINUOUS
 62
40
 10
8.9289588E+001
 20
2.1515815E+002
 11
8.6402788E+001
 21
2.1515815E+002
  0
LINE
  8
104
  6
CONTINUOUS
 62
40
 10
8.6402788E+001
 20
2.1515815E+002
 11
8.4959388E+001
 21
2.1265815E+002
  0
LINE
  8
104
  6
CONTINUOUS
 62
40
 10
8.4959388E+001
 20
2.1265815E+002
 11
8.6402788E+001
 21
2.1015815E+002
  0
LINE
  8
104
  6
CONTINUOUS
 62
40
 10
8.6402788E+001
 20
2.1015815E+002
 11
8.9289588E+001
 21
2.1015815E+002
  0
LINE
  8
104
  6
CONTINUOUS
 62
40
 10
8.9289588E+001
 20
2.1015815E+002
 11
9.0732888E+001
 21
2.1265815E+002
  0
LINE
  8
104
  6
CONTINUOUS
 62
40
 10
9.0732888E+001
 20
2.1265815E+002
 11
8.9289588E+001
 21
2.1515815E+002
  0
LINE
  8
106
  6
CENTERLINE
 62
1
 10
7.9111688E+001
 20
2.1265815E+002
 11
9.7032188E+001
 21
2.1265815E+002
  0
LINE
  8
106
  6
CENTERLINE
 62
1
 10
8.7846188E+001
 20
2.0367515E+002
 11
8.7846188E+001
 21
2.2121015E+002
  0
LINE
  8
106
  6
CENTERLINE
 62
1
 10
1.0666209E+002
 20
1.9015815E+002
 11
7.3312188E+001
 21
1.9015815E+002
  0
LINE
  8
106
  6
CENTERLINE
 62
1
 10
1.0666209E+002
 20
2.3515815E+002
 11
7.3312188E+001
 21
2.3515815E+002
  0
LINE
  8
104
  6
CONTINUOUS
 62
40
 10
1.0278689E+002
 20
1.8265815E+002
 11
9.6242388E+001
 21
1.7840815E+002
  0
LINE
  8
104
  6
CONTINUOUS
 62
40
 10
9.6242388E+001
 20
1.7840815E+002
 11
7.9449888E+001
 21
1.7840815E+002
  0
LINE
  8
104
  6
CONTINUOUS
 62
40
 10
7.9449888E+001
 20
1.7840815E+002
 11
7.2905488E+001
 21
1.8265815E+002
  0
LINE
  8
104
  6
CONTINUOUS
 62
40
 10
6.5846188E+001
 20
2.4265815E+002
 11
6.5846188E+001
 21
2.4035815E+002
  0
LINE
  8
104
  6
CONTINUOUS
 62
40
 10
6.5846188E+001
 20
2.4035815E+002
 11
6.5959788E+001
 21
2.4035815E+002
  0
LINE
  8
104
  6
CONTINUOUS
 62
40
 10
6.5959788E+001
 20
2.4035815E+002
 11
6.7346188E+001
 21
2.4109515E+002
  0
LINE
  8
104
  6
CONTINUOUS
 62
40
 10
6.7346188E+001
 20
2.4109515E+002
 11
6.7346188E+001
 21
1.8422115E+002
  0
LINE
  8
104
  6
CONTINUOUS
 62
40
 10
6.7346188E+001
 20
1.8422115E+002
 11
6.5959888E+001
 21
1.8495815E+002
  0
LINE
  8
104
  6
CONTINUOUS
 62
40
 10
6.5959888E+001
 20
1.8495815E+002
 11
6.5846188E+001
 21
1.8495815E+002
  0
LINE
  8
104
  6
CONTINUOUS
 62
40
 10
6.5846188E+001
 20
1.8495815E+002
 11
6.5846188E+001
 21
1.8265815E+002
  0
LINE
  8
104
  6
CONTINUOUS
 62
40
 10
6.5846188E+001
 20
1.8265815E+002
 11
1.0834609E+002
 21
1.8265815E+002
  0
LINE
  8
104
  6
CONTINUOUS
 62
40
 10
1.0834609E+002
 20
1.8265815E+002
 11
1.0834609E+002
 21
2.4265815E+002
  0
LINE
  8
104
  6
CONTINUOUS
 62
40
 10
1.0834609E+002
 20
2.4265815E+002
 11
6.5846188E+001
 21
2.4265815E+002
  0
LINE
  8
104
  6
CONTINUOUS
 62
40
 10
6.7346188E+001
 20
2.4075815E+002
 11
6.6846188E+001
 21
2.4075815E+002
  0
LINE
  8
104
  6
CONTINUOUS
 62
40
 10
6.6846188E+001
 20
2.4075815E+002
 11
6.6846188E+001
 21
1.8455815E+002
  0
LINE
  8
104
  6
CONTINUOUS
 62
40
 10
6.6846188E+001
 20
1.8455815E+002
 11
6.7346188E+001
 21
1.8455815E+002
  0
LINE
  8
104
  6
CONTINUOUS
 62
40
 10
6.7346188E+001
 20
1.8455815E+002
 11
6.7346188E+001
 21
2.4075815E+002
  0
LINE
  8
MED-0
  6
CENTERLINE
 62
150
 10
1.1534609E+002
 20
2.3265815E+002
 11
1.0834609E+002
 21
2.3265815E+002
  0
LINE
  8
MED-0
  6
CENTERLINE
 62
150
 10
1.0834609E+002
 20
2.3265815E+002
 11
1.0834609E+002
 21
2.3765815E+002
  0
LINE
  8
MED-0
  6
CENTERLINE
 62
150
 10
1.0834609E+002
 20
2.3765815E+002
 11
1.1534609E+002
 21
2.3765815E+002
  0
LINE
  8
MED-0
  6
CENTERLINE
 62
150
 10
1.1534609E+002
 20
2.3765815E+002
 11
1.1534609E+002
 21
2.3265815E+002
  0
LINE
  8
99
  6
CONTINUOUS
 62
1
 10
1.0834609E+002
 20
2.3340815E+002
 11
1.1534609E+002
 21
2.3340815E+002
  0
LINE
  8
99
  6
CONTINUOUS
 62
1
 10
1.0834609E+002
 20
2.3690815E+002
 11
1.1534609E+002
 21
2.3690815E+002
  0
LINE
  8
106
  6
CENTERLINE
 62
1
 10
1.0666209E+002
 20
2.3515815E+002
 11
1.1819709E+002
 21
2.3515815E+002
  0
LINE
  8
104
  6
CONTINUOUS
 62
40
 10
1.1534609E+002
 20
2.3265815E+002
 11
1.0834609E+002
 21
2.3265815E+002
  0
LINE
  8
104
  6
CONTINUOUS
 62
40
 10
1.0834609E+002
 20
2.3265815E+002
 11
1.0834609E+002
 21
2.3765815E+002
  0
LINE
  8
104
  6
CONTINUOUS
 62
40
 10
1.0834609E+002
 20
2.3765815E+002
 11
1.1534609E+002
 21
2.3765815E+002
  0
LINE
  8
104
  6
CONTINUOUS
 62
40
 10
1.1534609E+002
 20
2.3765815E+002
 11
1.1534609E+002
 21
2.3265815E+002
  0
LINE
  8
MED-0
  6
CENTERLINE
 62
150
 10
1.1534609E+002
 20
1.8765815E+002
 11
1.0834609E+002
 21
1.8765815E+002
  0
LINE
  8
MED-0
  6
CENTERLINE
 62
150
 10
1.0834609E+002
 20
1.8765815E+002
 11
1.0834609E+002
 21
1.9265815E+002
  0
LINE
  8
MED-0
  6
CENTERLINE
 62
150
 10
1.0834609E+002
 20
1.9265815E+002
 11
1.1534609E+002
 21
1.9265815E+002
  0
LINE
  8
MED-0
  6
CENTERLINE
 62
150
 10
1.1534609E+002
 20
1.9265815E+002
 11
1.1534609E+002
 21
1.8765815E+002
  0
LINE
  8
99
  6
CONTINUOUS
 62
1
 10
1.0834609E+002
 20
1.8840815E+002
 11
1.1534609E+002
 21
1.8840815E+002
  0
LINE
  8
99
  6
CONTINUOUS
 62
1
 10
1.0834609E+002
 20
1.9190815E+002
 11
1.1534609E+002
 21
1.9190815E+002
  0
LINE
  8
106
  6
CENTERLINE
 62
1
 10
1.0666209E+002
 20
1.9015815E+002
 11
1.1819709E+002
 21
1.9015815E+002
  0
LINE
  8
104
  6
CONTINUOUS
 62
40
 10
1.1534609E+002
 20
1.8765815E+002
 11
1.0834609E+002
 21
1.8765815E+002
  0
LINE
  8
104
  6
CONTINUOUS
 62
40
 10
1.0834609E+002
 20
1.8765815E+002
 11
1.0834609E+002
 21
1.9265815E+002
  0
LINE
  8
104
  6
CONTINUOUS
 62
40
 10
1.0834609E+002
 20
1.9265815E+002
 11
1.1534609E+002
 21
1.9265815E+002
  0
LINE
  8
104
  6
CONTINUOUS
 62
40
 10
1.1534609E+002
 20
1.9265815E+002
 11
1.1534609E+002
 21
1.8765815E+002
  0
LINE
  8
MED-1
  6
CONTINUOUS
 62
40
 10
8.5954204E+001
 20
2.5715815E+002
 11
9.8846184E+001
 21
2.5715815E+002
  0
LINE
  8
MED-1
  6
CONTINUOUS
 62
40
 10
8.4558294E+001
 20
2.5715813E+002
 11
8.5954204E+001
 21
2.5715815E+002
  0
LINE
  8
MED-1
  6
CONTINUOUS
 62
40
 10
5.0952227E+001
 20
2.5715814E+002
 11
8.4558294E+001
 21
2.5715813E+002
  0
LINE
  8
MED-1
  6
CONTINUOUS
 62
40
 10
8.4558314E+001
 20
2.6315815E+002
 11
8.4558294E+001
 21
2.5715813E+002
  0
LINE
  8
MED-1
  6
CONTINUOUS
 62
40
 10
8.4558314E+001
 20
2.6315815E+002
 11
5.0952229E+001
 21
2.6315815E+002
  0
LINE
  8
MED-1
  6
CONTINUOUS
 62
40
 10
7.6846185E+001
 20
2.4265815E+002
 11
7.6846174E+001
 21
2.5715813E+002
  0
LINE
  8
MED-1
  6
CONTINUOUS
 62
40
 10
9.8846184E+001
 20
2.6315815E+002
 11
9.8846184E+001
 21
2.4265815E+002
  0
LINE
  8
MED-1
  6
CONTINUOUS
 62
40
 10
9.8838724E+001
 20
2.6315815E+002
 11
8.4558314E+001
 21
2.6315815E+002
  0
POLYLINE
  8
106
  6
CENTERLINE
 62
1
 66
1
 40
0.0
 41
0.0
 70
2
  0
VERTEX
  8
106
 42
0.0
 10
5.0952229E+001
 20
2.6315815E+002
 70
0
  0
VERTEX
  8
106
 42
9.2324079E-003
 10
5.0793115E+001
 20
2.6293134E+002
 70
1
  0
VERTEX
  8
106
 42
8.8411803E-003
 10
5.0646366E+001
 20
2.6270545E+002
 70
0
  0
VERTEX
  8
106
 42
1.0296252E-002
 10
5.0512078E+001
 20
2.624805E+002
 70
1
  0
VERTEX
  8
106
 42
1.4267972E-002
 10
5.0392586E+001
 20
2.6225648E+002
 70
0
  0
VERTEX
  8
106
 42
1.8048001E-002
 10
5.0292022E+001
 20
2.6203344E+002
 70
1
  0
VERTEX
  8
106
 42
2.2083838E-002
 10
5.0212287E+001
 20
2.6181136E+002
 70
0
  0
VERTEX
  8
106
 42
2.6064686E-002
 10
5.0156803E+001
 20
2.6159028E+002
 70
1
  0
VERTEX
  8
106
 42
3.0114061E-002
 10
5.0126867E+001
 20
2.6137018E+002
 70
0
  0
VERTEX
  8
106
 42
3.4583056E-002
 10
5.01262E+001
 20
2.6115111E+002
 70
1
  0
VERTEX
  8
106
 42
3.9550655E-002
 10
5.0157722E+001
 20
2.6093306E+002
 70
0
  0
VERTEX
  8
106
 42
3.6229736E-002
 10
5.0225685E+001
 20
2.6071607E+002
 70
1
  0
VERTEX
  8
106
 42
2.6791222E-002
 10
5.0324028E+001
 20
2.6050007E+002
 70
0
  0
VERTEX
  8
106
 42
1.3968395E-002
 10
5.0445451E+001
 20
2.6028506E+002
 70
1
  0
VERTEX
  8
106
 42
-4.2625463E-003
 10
5.0571716E+001
 20
2.6007097E+002
 70
0
  0
VERTEX
  8
106
 42
-2.2308062E-002
 10
5.06827E+001
 20
2.5985778E+002
 70
1
  0
VERTEX
  8
106
 42
-4.8714177E-002
 10
5.0758556E+001
 20
2.5964506E+002
 70
0
  0
VERTEX
  8
106
 42
-6.8097367E-002
 10
5.0778985E+001
 20
2.5943265E+002
 70
1
  0
VERTEX
  8
106
 42
-7.2067293E-002
 10
5.0739847E+001
 20
2.5922162E+002
 70
0
  0
VERTEX
  8
106
 42
-4.4895101E-002
 10
5.0641516E+001
 20
2.590124E+002
 70
1
  0
VERTEX
  8
106
 42
-5.698894E-004
 10
5.0518821E+001
 20
2.5880067E+002
 70
0
  0
VERTEX
  8
106
 42
1.6372564E-002
 10
5.0406611E+001
 20
2.585851E+002
 70
1
  0
VERTEX
  8
106
 42
1.8487067E-002
 10
5.0318117E+001
 20
2.583833E+002
 70
0
  0
VERTEX
  8
106
 42
8.9583672E-002
 10
5.0273853E+001
 20
2.5820146E+002
 70
1
  0
VERTEX
  8
106
 42
1.243969E-001
 10
5.0334888E+001
 20
2.5797048E+002
 70
0
  0
VERTEX
  8
106
 42
4.4765343E-002
 10
5.0565993E+001
 20
2.5761791E+002
 70
1
  0
VERTEX
  8
106
 42
2.1079969E-002
 10
5.0952227E+001
 20
2.5715814E+002
 70
0
  0
SEQEND
  0
LINE
  8
104
  6
CONTINUOUS
 62
40
 10
1.0666209E+002
 20
2.7315815E+002
 11
1.1819709E+002
 21
2.7315815E+002
  0
LINE
  8
MED-1
  6
CONTINUOUS
 62
40
 10
1.0634609E+002
 20
2.8115815E+002
 11
1.0310988E+002
 21
2.8115815E+002
  0
LINE
  8
MED-1
  6
CONTINUOUS
 62
40
 10
1.0310988E+002
 20
2.8115815E+002
 11
1.0189682E+002
 21
2.8115815E+002
  0
LINE
  8
MED-1
  6
CONTINUOUS
 62
40
 10
1.0189682E+002
 20
2.8115815E+002
 11
9.0280738E+001
 21
2.8115815E+002
  0
LINE
  8
MED-1
  6
CONTINUOUS
 62
40
 10
9.0280738E+001
 20
2.8115815E+002
 11
8.8846088E+001
 21
2.8115815E+002
  0
LINE
  8
MED-1
  6
CONTINUOUS
 62
40
 10
8.8846088E+001
 20
2.6515815E+002
 11
9.0280738E+001
 21
2.6515815E+002
  0
LINE
  8
MED-1
  6
CONTINUOUS
 62
40
 10
9.0280738E+001
 20
2.6515815E+002
 11
1.0189682E+002
 21
2.6515815E+002
  0
LINE
  8
MED-1
  6
CONTINUOUS
 62
40
 10
1.0189682E+002
 20
2.6515815E+002
 11
1.0310988E+002
 21
2.6515815E+002
  0
LINE
  8
MED-1
  6
CONTINUOUS
 62
40
 10
1.0634609E+002
 20
2.6515815E+002
 11
1.0310988E+002
 21
2.6515815E+002
  0
LINE
  8
MED-1
  6
CONTINUOUS
 62
40
 10
1.0310988E+002
 20
2.6715815E+002
 11
1.0634609E+002
 21
2.6715815E+002
  0
LINE
  8
MED-1
  6
CONTINUOUS
 62
40
 10
1.0310988E+002
 20
2.6715815E+002
 11
1.0189682E+002
 21
2.6715815E+002
  0
LINE
  8
MED-1
  6
CONTINUOUS
 62
40
 10
1.0189682E+002
 20
2.6715815E+002
 11
9.0280738E+001
 21
2.6715815E+002
  0
LINE
  8
MED-1
  6
CONTINUOUS
 62
40
 10
9.0280738E+001
 20
2.6715815E+002
 11
8.8846088E+001
 21
2.6715815E+002
  0
LINE
  8
MED-1
  6
CONTINUOUS
 62
40
 10
8.8846088E+001
 20
2.7915815E+002
 11
9.0280738E+001
 21
2.7915815E+002
  0
LINE
  8
MED-1
  6
CONTINUOUS
 62
40
 10
9.0280738E+001
 20
2.7915815E+002
 11
1.0189682E+002
 21
2.7915815E+002
  0
LINE
  8
MED-1
  6
CONTINUOUS
 62
40
 10
1.0189682E+002
 20
2.7915815E+002
 11
1.0310988E+002
 21
2.7915815E+002
  0
LINE
  8
MED-1
  6
CONTINUOUS
 62
40
 10
1.0634609E+002
 20
2.7915815E+002
 11
1.0310988E+002
 21
2.7915815E+002
  0
ARC
  8
MED-1
  6
CONTINUOUS
 62
40
 10
1.0634609E+002
 20
2.7915815E+002
 40
2.0000001
 50
0.0
 51
9.0E+001
  0
ARC
  8
MED-1
  6
CONTINUOUS
 62
40
 10
1.0634609E+002
 20
2.6715815E+002
 40
1.9999999
 50
2.7E+002
 51
3.6E+002
  0
LINE
  8
MED-1
  6
CONTINUOUS
 62
40
 10
1.0634609E+002
 20
2.6715815E+002
 11
1.0634609E+002
 21
2.7915815E+002
  0
LINE
  8
MED-1
  6
CONTINUOUS
 62
40
 10
1.0834609E+002
 20
2.7915815E+002
 11
1.0834609E+002
 21
2.6715815E+002
  0
LINE
  8
MED-1
  6
CONTINUOUS
 62
40
 10
8.8846088E+001
 20
2.7915815E+002
 11
8.8846088E+001
 21
2.8115815E+002
  0
LINE
  8
MED-1
  6
CONTINUOUS
 62
40
 10
8.8846088E+001
 20
2.6515815E+002
 11
8.8846088E+001
 21
2.6715815E+002
  0
CIRCLE
  8
MED-1
  6
CONTINUOUS
 62
40
 10
7.9346088E+001
 20
2.7315815E+002
 40
3.5
  0
ARC
  8
MED-1
  6
CONTINUOUS
 62
40
 10
9.6346088E+001
 20
2.7657482E+002
 40
6.0833332
 50
4.888791E+001
 51
9.0E+001
  0
ARC
  8
MED-1
  6
CONTINUOUS
 62
40
 10
9.6346088E+001
 20
2.7657482E+002
 40
6.0833333
 50
9.0E+001
 51
1.3111209E+002
  0
LINE
  8
MED-1
  6
CONTINUOUS
 62
40
 10
1.0134609E+002
 20
2.6740815E+002
 11
9.1346088E+001
 21
2.6740815E+002
  0
LINE
  8
MED-1
  6
CONTINUOUS
 62
40
 10
9.1346088E+001
 20
2.7890815E+002
 11
1.0134609E+002
 21
2.7890815E+002
  0
LINE
  8
MED-1
  6
CONTINUOUS
 62
40
 10
1.0134609E+002
 20
2.7890815E+002
 11
1.013461E+002
 21
2.7865816E+002
  0
LINE
  8
MED-1
  6
CONTINUOUS
 62
40
 10
1.013461E+002
 20
2.6765813E+002
 11
1.0134609E+002
 21
2.6740815E+002
  0
LINE
  8
MED-1
  6
CONTINUOUS
 62
40
 10
9.1346088E+001
 20
2.6740815E+002
 11
9.1346098E+001
 21
2.6765813E+002
  0
LINE
  8
MED-1
  6
CONTINUOUS
 62
40
 10
9.1346098E+001
 20
2.7865816E+002
 11
9.1346088E+001
 21
2.7890815E+002
  0
ARC
  8
MED-1
  6
CONTINUOUS
 62
40
 10
7.9346088E+001
 20
2.7315815E+002
 40
5.5
 50
9.0E+001
 51
1.8E+002
  0
ARC
  8
MED-1
  6
CONTINUOUS
 62
40
 10
7.9346088E+001
 20
2.7315815E+002
 40
5.5
 50
1.8E+002
 51
2.7E+002
  0
LINE
  8
MED-1
  6
CONTINUOUS
 62
40
 10
9.1141278E+001
 20
2.7865815E+002
 11
1.0384609E+002
 21
2.7865815E+002
  0
LINE
  8
MED-1
  6
CONTINUOUS
 62
40
 10
9.1141278E+001
 20
2.7865815E+002
 11
8.9406338E+001
 21
2.7865815E+002
  0
LINE
  8
MED-1
  6
CONTINUOUS
 62
40
 10
8.9406338E+001
 20
2.7865815E+002
 11
7.9346088E+001
 21
2.7865815E+002
  0
LINE
  8
MED-1
  6
CONTINUOUS
 62
40
 10
7.9346088E+001
 20
2.6765815E+002
 11
8.9406338E+001
 21
2.6765815E+002
  0
LINE
  8
MED-1
  6
CONTINUOUS
 62
40
 10
8.9406338E+001
 20
2.6765815E+002
 11
9.1141278E+001
 21
2.6765815E+002
  0
LINE
  8
MED-1
  6
CONTINUOUS
 62
40
 10
1.0384609E+002
 20
2.6765815E+002
 11
9.1141278E+001
 21
2.6765815E+002
  0
LINE
  8
MED-1
  6
CONTINUOUS
 62
40
 10
9.1141278E+001
 20
2.6765815E+002
 11
9.1141278E+001
 21
2.7865815E+002
  0
LINE
  8
MED-1
  6
CONTINUOUS
 62
40
 10
1.0384609E+002
 20
2.7865815E+002
 11
1.038461E+002
 21
2.7740816E+002
  0
LINE
  8
MED-1
  6
CONTINUOUS
 62
40
 10
1.0384609E+002
 20
2.6890815E+002
 11
1.0384609E+002
 21
2.6765815E+002
  0
LINE
  8
MED-1
  6
CONTINUOUS
 62
40
 10
6.8846088E+001
 20
2.7038051E+002
 11
6.8846338E+001
 21
2.6962519E+002
  0
LINE
  8
MED-1
  6
CONTINUOUS
 62
40
 10
6.8846088E+001
 20
2.7038051E+002
 11
6.8846088E+001
 21
2.7039636E+002
  0
LINE
  8
MED-1
  6
CONTINUOUS
 62
40
 10
6.8846088E+001
 20
2.7591995E+002
 11
6.8846088E+001
 21
2.7039636E+002
  0
LINE
  8
MED-1
  6
CONTINUOUS
 62
40
 10
6.8846088E+001
 20
2.7665841E+002
 11
6.8846088E+001
 21
2.7598464E+002
  0
LINE
  8
MED-1
  6
CONTINUOUS
 62
40
 10
6.8846088E+001
 20
2.7591995E+002
 11
6.8846088E+001
 21
2.7598464E+002
  0
LINE
  8
MED-1
  6
CONTINUOUS
 62
40
 10
6.8846088E+001
 20
2.7683345E+002
 11
6.8846088E+001
 21
2.7665841E+002
  0
LINE
  8
MED-1
  6
CONTINUOUS
 62
40
 10
7.2046078E+001
 20
2.6840812E+002
 11
7.2046078E+001
 21
2.6914637E+002
  0
LINE
  8
MED-1
  6
CONTINUOUS
 62
40
 10
7.6573448E+001
 20
2.6840815E+002
 11
7.6290458E+001
 21
2.6840815E+002
  0
LINE
  8
MED-1
  6
CONTINUOUS
 62
40
 10
7.6290458E+001
 20
2.6840815E+002
 11
7.6007528E+001
 21
2.6840815E+002
  0
LINE
  8
MED-1
  6
CONTINUOUS
 62
40
 10
7.6007528E+001
 20
2.6840815E+002
 11
7.5724708E+001
 21
2.6840815E+002
  0
LINE
  8
MED-1
  6
CONTINUOUS
 62
40
 10
7.5724708E+001
 20
2.6840815E+002
 11
7.5441608E+001
 21
2.6840815E+002
  0
LINE
  8
MED-1
  6
CONTINUOUS
 62
40
 10
7.5441608E+001
 20
2.6840815E+002
 11
7.5158078E+001
 21
2.6840815E+002
  0
LINE
  8
MED-1
  6
CONTINUOUS
 62
40
 10
7.5158078E+001
 20
2.6840815E+002
 11
7.4875688E+001
 21
2.6840815E+002
  0
LINE
  8
MED-1
  6
CONTINUOUS
 62
40
 10
7.4875688E+001
 20
2.6840815E+002
 11
7.4594988E+001
 21
2.6840815E+002
  0
LINE
  8
MED-1
  6
CONTINUOUS
 62
40
 10
7.4594988E+001
 20
2.6840815E+002
 11
7.4309768E+001
 21
2.6840815E+002
  0
LINE
  8
MED-1
  6
CONTINUOUS
 62
40
 10
7.4309768E+001
 20
2.6840815E+002
 11
7.4017878E+001
 21
2.6840815E+002
  0
LINE
  8
MED-1
  6
CONTINUOUS
 62
40
 10
7.4017878E+001
 20
2.6840815E+002
 11
7.3743848E+001
 21
2.6840814E+002
  0
LINE
  8
MED-1
  6
CONTINUOUS
 62
40
 10
7.3743848E+001
 20
2.6840814E+002
 11
7.3496098E+001
 21
2.6840814E+002
  0
LINE
  8
MED-1
  6
CONTINUOUS
 62
40
 10
7.3496098E+001
 20
2.6840814E+002
 11
7.3177918E+001
 21
2.6840814E+002
  0
LINE
  8
MED-1
  6
CONTINUOUS
 62
40
 10
7.3177918E+001
 20
2.6840814E+002
 11
7.2687858E+001
 21
2.6840813E+002
  0
LINE
  8
MED-1
  6
CONTINUOUS
 62
40
 10
7.2687858E+001
 20
2.6840813E+002
 11
7.2046078E+001
 21
2.6840812E+002
  0
LINE
  8
MED-1
  6
CONTINUOUS
 62
40
 10
7.5583698E+001
 20
2.6914636E+002
 11
7.2046078E+001
 21
2.6914637E+002
  0
LINE
  8
MED-1
  6
CONTINUOUS
 62
40
 10
6.8969558E+001
 20
2.6953907E+002
 11
6.8973488E+001
 21
2.6954371E+002
  0
ARC
  8
MED-1
  6
CONTINUOUS
 62
40
 10
7.9960923E+001
 20
2.6020939E+002
 40
1.441712E+001
 50
1.3958391E+002
 51
1.3965059E+002
  0
LINE
  8
MED-1
  6
CONTINUOUS
 62
40
 10
6.8984358E+001
 20
2.6955649E+002
 11
6.9002258E+001
 21
2.6957755E+002
  0
LINE
  8
MED-1
  6
CONTINUOUS
 62
40
 10
6.9002258E+001
 20
2.6957755E+002
 11
6.9028178E+001
 21
2.6960805E+002
  0
LINE
  8
MED-1
  6
CONTINUOUS
 62
40
 10
6.9028178E+001
 20
2.6960805E+002
 11
6.9062688E+001
 21
2.6964864E+002
  0
LINE
  8
MED-1
  6
CONTINUOUS
 62
40
 10
6.9062688E+001
 20
2.6964864E+002
 11
6.9099368E+001
 21
2.6969179E+002
  0
LINE
  8
MED-1
  6
CONTINUOUS
 62
40
 10
6.9099368E+001
 20
2.6969179E+002
 11
6.9136138E+001
 21
2.6973505E+002
  0
LINE
  8
MED-1
  6
CONTINUOUS
 62
40
 10
6.9136138E+001
 20
2.6973505E+002
 11
6.9195298E+001
 21
2.6980465E+002
  0
LINE
  8
MED-1
  6
CONTINUOUS
 62
40
 10
6.9195298E+001
 20
2.6980465E+002
 11
6.9300808E+001
 21
2.6992877E+002
  0
LINE
  8
MED-1
  6
CONTINUOUS
 62
40
 10
6.9300808E+001
 20
2.6992877E+002
 11
6.9447718E+001
 21
2.7010158E+002
  0
LINE
  8
MED-1
  6
CONTINUOUS
 62
40
 10
7.2046078E+001
 20
2.6840812E+002
 11
7.1873138E+001
 21
2.6841121E+002
  0
ARC
  8
MED-1
  6
CONTINUOUS
 62
40
 10
7.2048597E+001
 20
2.7345104E+002
 40
5.0428806
 50
2.6606087E+002
 51
2.6800608E+002
  0
ARC
  8
MED-1
  6
CONTINUOUS
 62
40
 10
7.2044513E+001
 20
2.7327883E+002
 40
4.8708089
 50
2.6397496E+002
 51
2.6596964E+002
  0
ARC
  8
MED-1
  6
CONTINUOUS
 62
40
 10
7.2032301E+001
 20
2.7317139E+002
 40
4.7626796
 50
2.6196142E+002
 51
2.639854E+002
  0
ARC
  8
MED-1
  6
CONTINUOUS
 62
40
 10
7.2031185E+001
 20
2.731334E+002
 40
4.7249057
 50
2.5988441E+002
 51
2.6191039E+002
  0
ARC
  8
MED-1
  6
CONTINUOUS
 62
40
 10
7.2023601E+001
 20
2.7310923E+002
 40
4.6997785
 50
2.5789897E+002
 51
2.5992367E+002
  0
ARC
  8
MED-1
  6
CONTINUOUS
 62
40
 10
7.2028851E+001
 20
2.7311309E+002
 40
4.7046604
 50
2.5583385E+002
 51
2.5784633E+002
  0
ARC
  8
MED-1
  6
CONTINUOUS
 62
40
 10
7.2016906E+001
 20
2.7307006E+002
 40
4.6600159
 50
2.5381979E+002
 51
2.5584678E+002
  0
ARC
  8
MED-1
  6
CONTINUOUS
 62
40
 10
7.2001313E+001
 20
2.7300175E+002
 40
4.5900692
 50
2.5171292E+002
 51
2.5376911E+002
  0
ARC
  8
MED-1
  6
CONTINUOUS
 62
40
 10
7.2034596E+001
 20
2.7314163E+002
 40
4.7333367
 50
2.4987768E+002
 51
2.5186164E+002
  0
ARC
  8
MED-1
  6
CONTINUOUS
 62
40
 10
7.2164887E+001
 20
2.7349285E+002
 40
5.1079465
 50
2.480334E+002
 51
2.4986077E+002
  0
ARC
  8
MED-1
  6
CONTINUOUS
 62
40
 10
7.2030201E+001
 20
2.7309308E+002
 40
4.6868783
 50
2.4570623E+002
 51
2.4773225E+002
  0
ARC
  8
MED-1
  6
CONTINUOUS
 62
40
 10
7.1739739E+001
 20
2.7243214E+002
 40
3.9649732
 50
2.4314489E+002
 51
2.456025E+002
  0
ARC
  8
MED-1
  6
CONTINUOUS
 62
40
 10
7.2104938E+001
 20
2.7333724E+002
 40
4.9381325
 50
2.4225205E+002
 51
2.4410858E+002
  0
ARC
  8
MED-1
  6
CONTINUOUS
 62
40
 10
7.6280822E+001
 20
2.8133566E+002
 40
1.3961015E+001
 50
2.4177296E+002
 51
2.4236799E+002
  0
ARC
  8
MED-1
  6
CONTINUOUS
 62
40
 10
7.1741708E+001
 20
2.725049E+002
 40
4.0374599
 50
2.3658323E+002
 51
2.392557E+002
  0
ARC
  8
MED-1
  6
CONTINUOUS
 62
40
 10
7.1522411E+001
 20
2.7219708E+002
 40
3.6597724
 50
2.3219282E+002
 51
2.3679483E+002
  0
ARC
  8
MED-1
  6
CONTINUOUS
 62
40
 10
7.5212185E+001
 20
2.7748889E+002
 40
1.0107922E+001
 50
2.3185911E+002
 51
2.3405639E+002
  0
LINE
  8
MED-1
  6
CONTINUOUS
 62
40
 10
7.2046078E+001
 20
2.6914637E+002
 11
7.1900018E+001
 21
2.6914897E+002
  0
ARC
  8
MED-1
  6
CONTINUOUS
 62
40
 10
7.204775E+001
 20
2.7340414E+002
 40
4.2577323
 50
2.6606572E+002
 51
2.6801159E+002
  0
ARC
  8
MED-1
  6
CONTINUOUS
 62
40
 10
7.2044613E+001
 20
2.7325865E+002
 40
4.1123802
 50
2.6397486E+002
 51
2.6597025E+002
  0
ARC
  8
MED-1
  6
CONTINUOUS
 62
40
 10
7.2033948E+001
 20
2.7316796E+002
 40
4.0210735
 50
2.6196568E+002
 51
2.6399035E+002
  0
ARC
  8
MED-1
  6
CONTINUOUS
 62
40
 10
7.2033257E+001
 20
2.7313605E+002
 40
3.9893757
 50
2.598849E+002
 51
2.6191145E+002
  0
ARC
  8
MED-1
  6
CONTINUOUS
 62
40
 10
7.2027025E+001
 20
2.7311612E+002
 40
3.9686668
 50
2.5789778E+002
 51
2.5992295E+002
  0
ARC
  8
MED-1
  6
CONTINUOUS
 62
40
 10
7.2031256E+001
 20
2.7311922E+002
 40
3.9725872
 50
2.5583462E+002
 51
2.5784749E+002
  0
ARC
  8
MED-1
  6
CONTINUOUS
 62
40
 10
7.2021365E+001
 20
2.730831E+002
 40
3.9351377
 50
2.5381821E+002
 51
2.5584552E+002
  0
ARC
  8
MED-1
  6
CONTINUOUS
 62
40
 10
7.2008003E+001
 20
2.7302582E+002
 40
3.8764107
 50
2.5171554E+002
 51
2.5377197E+002
  0
ARC
  8
MED-1
  6
CONTINUOUS
 62
40
 10
7.2036504E+001
 20
2.7314378E+002
 40
3.9973634
 50
2.49874E+002
 51
2.5185808E+002
  0
ARC
  8
MED-1
  6
CONTINUOUS
 62
40
 10
7.2146265E+001
 20
2.7344109E+002
 40
4.3142848
 50
2.4803655E+002
 51
2.4986391E+002
  0
ARC
  8
MED-1
  6
CONTINUOUS
 62
40
 10
7.2032582E+001
 20
2.7310298E+002
 40
3.958255
 50
2.4570611E+002
 51
2.4773223E+002
  0
ARC
  8
MED-1
  6
CONTINUOUS
 62
40
 10
7.1787101E+001
 20
2.7254441E+002
 40
3.3481617
 50
2.4314436E+002
 51
2.456024E+002
  0
ARC
  8
MED-1
  6
CONTINUOUS
 62
40
 10
7.2095426E+001
 20
2.7330846E+002
 40
4.1696748
 50
2.4225052E+002
 51
2.4410739E+002
  0
ARC
  8
MED-1
  6
CONTINUOUS
 62
40
 10
7.5624497E+001
 20
2.8006824E+002
 40
1.1795207E+001
 50
2.4177318E+002
 51
2.4236806E+002
  0
ARC
  8
MED-1
  6
CONTINUOUS
 62
40
 10
7.1788404E+001
 20
2.7260528E+002
 40
3.4086908
 50
2.3658113E+002
 51
2.3925458E+002
  0
ARC
  8
MED-1
  6
CONTINUOUS
 62
40
 10
7.160323E+001
 20
2.7234507E+002
 40
3.0895375
 50
2.3218539E+002
 51
2.367897E+002
  0
ARC
  8
MED-1
  6
CONTINUOUS
 62
40
 10
7.4718342E+001
 20
2.7681205E+002
 40
8.532872
 50
2.3185275E+002
 51
2.3405113E+002
  0
LINE
  8
MED-1
  6
CONTINUOUS
 62
40
 10
6.8969558E+001
 20
2.6953907E+002
 11
6.8958258E+001
 21
2.6954859E+002
  0
ARC
  8
MED-1
  6
CONTINUOUS
 62
40
 10
6.7974874E+001
 20
2.6836919E+002
 40
1.5355867
 50
5.0178631E+001
 51
5.0696498E+001
  0
ARC
  8
MED-1
  6
CONTINUOUS
 62
40
 10
6.8157207E+001
 20
2.6858807E+002
 40
1.2507263
 50
5.0808572E+001
 51
5.140246E+001
  0
ARC
  8
MED-1
  6
CONTINUOUS
 62
40
 10
6.8293492E+001
 20
2.687571E+002
 40
1.0336027
 50
5.1461535E+001
 51
5.2133791E+001
  0
ARC
  8
MED-1
  6
CONTINUOUS
 62
40
 10
6.8382645E+001
 20
2.6887089E+002
 40
8.8904782E-001
 50
5.2168206E+001
 51
5.2898169E+001
  0
ARC
  8
MED-1
  6
CONTINUOUS
 62
40
 10
6.845084E+001
 20
2.6895972E+002
 40
7.7705764E-001
 50
5.2957234E+001
 51
5.3736617E+001
  0
ARC
  8
MED-1
  6
CONTINUOUS
 62
40
 10
6.8496881E+001
 20
2.6902041E+002
 40
7.008952E-001
 50
5.3837084E+001
 51
5.4639992E+001
  0
ARC
  8
MED-1
  6
CONTINUOUS
 62
40
 10
6.857632E+001
 20
2.691303E+002
 40
5.6530546E-001
 50
5.4760529E+001
 51
5.5700719E+001
  0
ARC
  8
MED-1
  6
CONTINUOUS
 62
40
 10
6.8652273E+001
 20
2.6923935E+002
 40
4.3241601E-001
 50
5.5871809E+001
 51
5.7037154E+001
  0
ARC
  8
MED-1
  6
CONTINUOUS
 62
40
 10
6.8645716E+001
 20
2.6923395E+002
 40
4.405232E-001
 50
5.6703906E+001
 51
5.7729603E+001
  0
ARC
  8
MED-1
  6
CONTINUOUS
 62
40
 10
6.8482129E+001
 20
2.6897611E+002
 40
7.4587689E-001
 50
5.7679239E+001
 51
5.8203133E+001
  0
ARC
  8
MED-1
  6
CONTINUOUS
 62
40
 10
6.8717364E+001
 20
2.6934253E+002
 40
3.1058211E-001
 50
5.9469723E+001
 51
6.0913372E+001
  0
ARC
  8
MED-1
  6
CONTINUOUS
 62
40
 10
6.8751068E+001
 20
2.6940202E+002
 40
2.4220825E-001
 50
6.1039162E+001
 51
6.3638087E+001
  0
ARC
  8
MED-1
  6
CONTINUOUS
 62
40
 10
6.8617514E+001
 20
2.6915295E+002
 40
5.2475653E-001
 50
6.2647841E+001
 51
6.4147429E+001
  0
LINE
  8
MED-1
  6
CONTINUOUS
 62
40
 10
6.9447718E+001
 20
2.7010158E+002
 11
6.9420808E+001
 21
2.7012381E+002
  0
ARC
  8
MED-1
  6
CONTINUOUS
 62
40
 10
6.859537E+001
 20
2.6909796E+002
 40
1.3167097
 50
5.1178618E+001
 51
5.2685371E+001
  0
ARC
  8
MED-1
  6
CONTINUOUS
 62
40
 10
6.8618372E+001
 20
2.6912555E+002
 40
1.2808214
 50
5.2755471E+001
 51
5.4292063E+001
  0
ARC
  8
MED-1
  6
CONTINUOUS
 62
40
 10
6.8631908E+001
 20
2.6914521E+002
 40
1.2569586
 50
5.4270085E+001
 51
5.5825653E+001
  0
ARC
  8
MED-1
  6
CONTINUOUS
 62
40
 10
6.8638979E+001
 20
2.6915364E+002
 40
1.2460141
 50
5.5876972E+001
 51
5.7436414E+001
  0
ARC
  8
MED-1
  6
CONTINUOUS
 62
40
 10
6.8642998E+001
 20
2.6916097E+002
 40
1.2376739
 50
5.7410602E+001
 51
5.897135E+001
  0
ARC
  8
MED-1
  6
CONTINUOUS
 62
40
 10
6.8644547E+001
 20
2.6916186E+002
 40
1.236113
 50
5.9011565E+001
 51
6.0566537E+001
  0
ARC
  8
MED-1
  6
CONTINUOUS
 62
40
 10
6.8652527E+001
 20
2.6917573E+002
 40
1.2201121
 50
6.0572852E+001
 51
6.214333E+001
  0
ARC
  8
MED-1
  6
CONTINUOUS
 62
40
 10
6.866451E+001
 20
2.6919665E+002
 40
1.1960163
 50
6.2182556E+001
 51
6.3781316E+001
  0
ARC
  8
MED-1
  6
CONTINUOUS
 62
40
 10
6.8650106E+001
 20
2.6917271E+002
 40
1.2238562
 50
6.3671434E+001
 51
6.5223549E+001
  0
ARC
  8
MED-1
  6
CONTINUOUS
 62
40
 10
6.8616443E+001
 20
2.6909863E+002
 40
1.30522
 50
6.5244604E+001
 51
6.6688969E+001
  0
ARC
  8
MED-1
  6
CONTINUOUS
 62
40
 10
6.8659466E+001
 20
2.6918763E+002
 40
1.2064724
 50
6.6892865E+001
 51
6.8477617E+001
  0
ARC
  8
MED-1
  6
CONTINUOUS
 62
40
 10
6.8720803E+001
 20
2.6934033E+002
 40
1.0419151
 50
6.8534757E+001
 51
7.0412085E+001
  0
ARC
  8
MED-1
  6
CONTINUOUS
 62
40
 10
6.8619443E+001
 20
2.6910522E+002
 40
1.297506
 50
6.9675794E+001
 51
7.1091114E+001
  0
ARC
  8
MED-1
  6
CONTINUOUS
 62
40
 10
6.7867808E+001
 20
2.669256E+002
 40
3.6030852
 50
7.1015803E+001
 51
7.1476784E+001
  0
ARC
  8
MED-1
  6
CONTINUOUS
 62
40
 10
6.8708587E+001
 20
2.6932487E+002
 40
1.0615833
 50
7.3366259E+001
 51
7.5380008E+001
  0
ARC
  8
MED-1
  6
CONTINUOUS
 62
40
 10
6.8736944E+001
 20
2.6944158E+002
 40
9.4149625E-001
 50
7.5257102E+001
 51
7.8770034E+001
  0
ARC
  8
MED-1
  6
CONTINUOUS
 62
40
 10
6.8364055E+001
 20
2.678834E+002
 40
2.5432237
 50
7.7366389E+001
 51
7.9073593E+001
  0
LINE
  8
MED-1
  6
CONTINUOUS
 62
40
 10
6.8846118E+001
 20
2.6965812E+002
 11
5.0021007E+001
 21
2.6965812E+002
  0
LINE
  8
MED-1
  6
CONTINUOUS
 62
40
 10
4.9174894E+001
 20
2.7665811E+002
 11
6.8846088E+001
 21
2.7665841E+002
  0
LINE
  8
MED-1
  6
CONTINUOUS
 62
40
 10
6.8846118E+001
 20
2.7598462E+002
 11
6.8865868E+001
 21
2.7599148E+002
  0
ARC
  8
MED-1
  6
CONTINUOUS
 62
40
 10
6.84427E+001
 20
2.7717781E+002
 40
1.2595459
 50
2.8963145E+002
 51
2.9058286E+002
  0
ARC
  8
MED-1
  6
CONTINUOUS
 62
40
 10
6.843674E+001
 20
2.771917E+002
 40
1.2746414
 50
2.9061423E+002
 51
2.9155512E+002
  0
ARC
  8
MED-1
  6
CONTINUOUS
 62
40
 10
6.8440894E+001
 20
2.7718238E+002
 40
1.2644526
 50
2.9153509E+002
 51
2.9248424E+002
  0
ARC
  8
MED-1
  6
CONTINUOUS
 62
40
 10
6.8454234E+001
 20
2.7714761E+002
 40
1.22722
 50
2.9252969E+002
 51
2.9350872E+002
  0
ARC
  8
MED-1
  6
CONTINUOUS
 62
40
 10
6.8458221E+001
 20
2.7713853E+002
 40
1.2173006
 50
2.9350717E+002
 51
2.9449539E+002
  0
ARC
  8
MED-1
  6
CONTINUOUS
 62
40
 10
6.8453552E+001
 20
2.7714784E+002
 40
1.2277111
 50
2.9451348E+002
 51
2.9549395E+002
  0
ARC
  8
MED-1
  6
CONTINUOUS
 62
40
 10
6.8456881E+001
 20
2.7714004E+002
 40
1.2192352
 50
2.9551056E+002
 51
2.965009E+002
  0
ARC
  8
MED-1
  6
CONTINUOUS
 62
40
 10
6.8468441E+001
 20
2.7711608E+002
 40
1.1926387
 50
2.9651741E+002
 51
2.9753347E+002
  0
ARC
  8
MED-1
  6
CONTINUOUS
 62
40
 10
6.845525E+001
 20
2.7714448E+002
 40
1.223919
 50
2.9746652E+002
 51
2.9845499E+002
  0
ARC
  8
MED-1
  6
CONTINUOUS
 62
40
 10
6.8415494E+001
 20
2.7721666E+002
 40
1.3063256
 50
2.984795E+002
 51
2.9940221E+002
  0
ARC
  8
MED-1
  6
CONTINUOUS
 62
40
 10
6.8464101E+001
 20
2.7712429E+002
 40
1.2019925
 50
2.9954533E+002
 51
3.005675E+002
  0
ARC
  8
MED-1
  6
CONTINUOUS
 62
40
 10
6.8550233E+001
 20
2.7697694E+002
 40
1.0313174
 50
3.0061046E+002
 51
3.0183443E+002
  0
ARC
  8
MED-1
  6
CONTINUOUS
 62
40
 10
6.8424237E+001
 20
2.7719986E+002
 40
1.2872044
 50
3.0136535E+002
 51
3.0228792E+002
  0
ARC
  8
MED-1
  6
CONTINUOUS
 62
40
 10
6.7230773E+001
 20
2.7909585E+002
 40
3.5275486
 50
3.0222512E+002
 51
3.0252995E+002
  0
ARC
  8
MED-1
  6
CONTINUOUS
 62
40
 10
6.8537642E+001
 20
2.7700532E+002
 40
1.0624782
 50
3.037341E+002
 51
3.0504502E+002
  0
ARC
  8
MED-1
  6
CONTINUOUS
 62
40
 10
6.859673E+001
 20
2.7692359E+002
 40
9.6163213E-001
 50
3.0495919E+002
 51
3.0720721E+002
  0
ARC
  8
MED-1
  6
CONTINUOUS
 62
40
 10
6.7626069E+001
 20
2.782705E+002
 40
2.6216747
 50
3.0630252E+002
 51
3.0738644E+002
  0
LINE
  8
MED-1
  6
CONTINUOUS
 62
40
 10
6.9217918E+001
 20
2.7618743E+002
 11
6.9334958E+001
 21
2.7627734E+002
  0
ARC
  8
MED-1
  6
CONTINUOUS
 62
40
 10
7.2031875E+001
 20
2.7264785E+002
 40
4.52179
 50
1.2476158E+002
 51
1.2661441E+002
  0
ARC
  8
MED-1
  6
CONTINUOUS
 62
40
 10
7.1946672E+001
 20
2.72759E+002
 40
4.3818995
 50
1.2277968E+002
 51
1.2467501E+002
  0
ARC
  8
MED-1
  6
CONTINUOUS
 62
40
 10
7.18986E+001
 20
2.7283579E+002
 40
4.2913134
 50
1.2087379E+002
 51
1.2279511E+002
  0
ARC
  8
MED-1
  6
CONTINUOUS
 62
40
 10
7.1877208E+001
 20
2.7286372E+002
 40
4.2563626
 50
1.1889484E+002
 51
1.2081958E+002
  0
ARC
  8
MED-1
  6
CONTINUOUS
 62
40
 10
7.186885E+001
 20
2.728844E+002
 40
4.2342209
 50
1.1700678E+002
 51
1.1893104E+002
  0
ARC
  8
MED-1
  6
CONTINUOUS
 62
40
 10
7.1867437E+001
 20
2.7287936E+002
 40
4.2380728
 50
1.1504523E+002
 51
1.169588E+002
  0
ARC
  8
MED-1
  6
CONTINUOUS
 62
40
 10
7.1850019E+001
 20
2.7291723E+002
 40
4.196385
 50
1.131201E+002
 51
1.1504871E+002
  0
ARC
  8
MED-1
  6
CONTINUOUS
 62
40
 10
7.1821144E+001
 20
2.7297749E+002
 40
4.1296255
 50
1.1112132E+002
 51
1.1307995E+002
  0
ARC
  8
MED-1
  6
CONTINUOUS
 62
40
 10
7.1875318E+001
 20
2.7286462E+002
 40
4.254451
 50
1.093624E+002
 51
1.1125412E+002
  0
ARC
  8
MED-1
  6
CONTINUOUS
 62
40
 10
7.1983463E+001
 20
2.7255301E+002
 40
4.5842867
 50
1.0760138E+002
 51
1.0934639E+002
  0
ARC
  8
MED-1
  6
CONTINUOUS
 62
40
 10
7.1848468E+001
 20
2.7290875E+002
 40
4.2044368
 50
1.0537832E+002
 51
1.0731379E+002
  0
ARC
  8
MED-1
  6
CONTINUOUS
 62
40
 10
7.1670798E+001
 20
2.7353062E+002
 40
3.5577185
 50
1.0292874E+002
 51
1.0527537E+002
  0
ARC
  8
MED-1
  6
CONTINUOUS
 62
40
 10
7.1935261E+001
 20
2.7269896E+002
 40
4.4280525
 50
1.0208281E+002
 51
1.0385629E+002
  0
ARC
  8
MED-1
  6
CONTINUOUS
 62
40
 10
7.3643655E+001
 20
2.6482646E+002
 40
1.2483768E+001
 50
1.0161676E+002
 51
1.021867E+002
  0
ARC
  8
MED-1
  6
CONTINUOUS
 62
40
 10
7.1709068E+001
 20
2.7348399E+002
 40
3.6171989
 50
9.6661872E+001
 51
9.9214096E+001
  0
ARC
  8
MED-1
  6
CONTINUOUS
 62
40
 10
7.1680124E+001
 20
2.7382875E+002
 40
3.2714371
 50
9.2458936E+001
 51
9.6858818E+001
  0
ARC
  8
MED-1
  6
CONTINUOUS
 62
40
 10
7.2205724E+001
 20
2.6811161E+002
 40
9.0102017
 50
9.2133274E+001
 51
9.4238674E+001
  0
LINE
  8
MED-1
  6
CONTINUOUS
 62
40
 10
7.1870328E+001
 20
2.7711557E+002
 11
7.2099238E+001
 21
2.771156E+002
  0
LINE
  8
MED-1
  6
CONTINUOUS
 62
40
 10
7.2099238E+001
 20
2.771156E+002
 11
7.2328108E+001
 21
2.7711568E+002
  0
LINE
  8
MED-1
  6
CONTINUOUS
 62
40
 10
7.2328108E+001
 20
2.7711568E+002
 11
7.2556878E+001
 21
2.7711581E+002
  0
LINE
  8
MED-1
  6
CONTINUOUS
 62
40
 10
7.2556878E+001
 20
2.7711581E+002
 11
7.2785888E+001
 21
2.7711598E+002
  0
LINE
  8
MED-1
  6
CONTINUOUS
 62
40
 10
7.2785888E+001
 20
2.7711598E+002
 11
7.3015238E+001
 21
2.771162E+002
  0
LINE
  8
MED-1
  6
CONTINUOUS
 62
40
 10
7.3015238E+001
 20
2.771162E+002
 11
7.3243658E+001
 21
2.7711647E+002
  0
LINE
  8
MED-1
  6
CONTINUOUS
 62
40
 10
7.3243658E+001
 20
2.7711647E+002
 11
7.3470718E+001
 21
2.7711677E+002
  0
LINE
  8
MED-1
  6
CONTINUOUS
 62
40
 10
7.3470718E+001
 20
2.7711677E+002
 11
7.3701428E+001
 21
2.7711712E+002
  0
LINE
  8
MED-1
  6
CONTINUOUS
 62
40
 10
7.3701428E+001
 20
2.7711712E+002
 11
7.3937528E+001
 21
2.7711753E+002
  0
LINE
  8
MED-1
  6
CONTINUOUS
 62
40
 10
7.3937528E+001
 20
2.7711753E+002
 11
7.4159198E+001
 21
2.7711794E+002
  0
LINE
  8
MED-1
  6
CONTINUOUS
 62
40
 10
7.4159198E+001
 20
2.7711794E+002
 11
7.4359598E+001
 21
2.7711834E+002
  0
LINE
  8
MED-1
  6
CONTINUOUS
 62
40
 10
7.4359598E+001
 20
2.7711834E+002
 11
7.4616968E+001
 21
2.7711892E+002
  0
LINE
  8
MED-1
  6
CONTINUOUS
 62
40
 10
7.4616968E+001
 20
2.7711892E+002
 11
7.5013368E+001
 21
2.7711993E+002
  0
LINE
  8
MED-1
  6
CONTINUOUS
 62
40
 10
7.5013368E+001
 20
2.7711993E+002
 11
7.5532498E+001
 21
2.7712131E+002
  0
LINE
  8
MED-1
  6
CONTINUOUS
 62
40
 10
6.8846118E+001
 20
2.7665839E+002
 11
6.8866488E+001
 21
2.7663258E+002
  0
LINE
  8
MED-1
  6
CONTINUOUS
 62
40
 10
6.8866488E+001
 20
2.7663258E+002
 11
6.8888778E+001
 21
2.7660434E+002
  0
LINE
  8
MED-1
  6
CONTINUOUS
 62
40
 10
6.8888778E+001
 20
2.7660434E+002
 11
6.8912938E+001
 21
2.7657374E+002
  0
LINE
  8
MED-1
  6
CONTINUOUS
 62
40
 10
6.8912938E+001
 20
2.7657374E+002
 11
6.8939718E+001
 21
2.7653982E+002
  0
LINE
  8
MED-1
  6
CONTINUOUS
 62
40
 10
6.8939718E+001
 20
2.7653982E+002
 11
6.8969458E+001
 21
2.7650215E+002
  0
LINE
  8
MED-1
  6
CONTINUOUS
 62
40
 10
6.8969458E+001
 20
2.7650215E+002
 11
6.8998578E+001
 21
2.7646526E+002
  0
LINE
  8
MED-1
  6
CONTINUOUS
 62
40
 10
6.8998578E+001
 20
2.7646526E+002
 11
6.9025918E+001
 21
2.7643063E+002
  0
LINE
  8
MED-1
  6
CONTINUOUS
 62
40
 10
6.9025918E+001
 20
2.7643063E+002
 11
6.9064928E+001
 21
2.7638122E+002
  0
LINE
  8
MED-1
  6
CONTINUOUS
 62
40
 10
6.9064928E+001
 20
2.7638122E+002
 11
6.9129888E+001
 21
2.7629893E+002
  0
LINE
  8
MED-1
  6
CONTINUOUS
 62
40
 10
6.9129888E+001
 20
2.7629893E+002
 11
6.9217918E+001
 21
2.7618743E+002
  0
LINE
  8
MED-1
  6
CONTINUOUS
 62
40
 10
7.1873048E+001
 20
2.7785382E+002
 11
7.1870328E+001
 21
2.7711557E+002
  0
ARC
  8
MED-1
  6
CONTINUOUS
 62
40
 10
7.1873038E+001
 20
2.728538E+002
 40
5.0
 50
8.999989E+001
 51
1.2725694E+002
  0
LINE
  8
MED-1
  6
CONTINUOUS
 62
40
 10
7.1873048E+001
 20
2.7785382E+002
 11
7.6510158E+001
 21
2.7787064E+002
  0
LINE
  8
MED-1
  6
CONTINUOUS
 62
40
 10
1.2234609E+002
 20
2.7315815E+002
 11
1.2234609E+002
 21
2.7535815E+002
  0
LINE
  8
MED-1
  6
CONTINUOUS
 62
40
 10
1.2234609E+002
 20
2.7095815E+002
 11
1.2234609E+002
 21
2.7315815E+002
  0
LINE
  8
MED-1
  6
CONTINUOUS
 62
40
 10
1.0304609E+002
 20
2.7315815E+002
 11
1.0304609E+002
 21
2.6920815E+002
  0
LINE
  8
MED-1
  6
CONTINUOUS
 62
40
 10
1.0304609E+002
 20
2.7710815E+002
 11
1.0304609E+002
 21
2.7315815E+002
  0
LINE
  8
MED-1
  6
CONTINUOUS
 62
40
 10
1.2234612E+002
 20
2.7095814E+002
 11
1.2204605E+002
 21
2.7065815E+002
  0
LINE
  8
MED-1
  6
CONTINUOUS
 62
40
 10
1.2204605E+002
 20
2.7315815E+002
 11
1.2204605E+002
 21
2.7065815E+002
  0
LINE
  8
MED-1
  6
CONTINUOUS
 62
40
 10
1.2204605E+002
 20
2.7565814E+002
 11
1.2204605E+002
 21
2.7315815E+002
  0
LINE
  8
MED-1
  6
CONTINUOUS
 62
40
 10
1.2204605E+002
 20
2.7565814E+002
 11
1.2234612E+002
 21
2.7535815E+002
  0
LINE
  8
MED-1
  6
CONTINUOUS
 62
40
 10
1.0334608E+002
 20
2.7315815E+002
 11
1.0334608E+002
 21
2.7740816E+002
  0
LINE
  8
MED-1
  6
CONTINUOUS
 62
40
 10
1.0334608E+002
 20
2.6890813E+002
 11
1.0334608E+002
 21
2.7315815E+002
  0
LINE
  8
MED-1
  6
CONTINUOUS
 62
40
 10
1.0334608E+002
 20
2.7740816E+002
 11
1.063461E+002
 21
2.7740816E+002
  0
LINE
  8
MED-1
  6
CONTINUOUS
 62
40
 10
1.063461E+002
 20
2.6890813E+002
 11
1.0334608E+002
 21
2.6890813E+002
  0
LINE
  8
MED-1
  6
CONTINUOUS
 62
40
 10
1.2204605E+002
 20
2.7065815E+002
 11
1.0834608E+002
 21
2.7065815E+002
  0
LINE
  8
MED-1
  6
CONTINUOUS
 62
40
 10
1.0834608E+002
 20
2.7565814E+002
 11
1.2204605E+002
 21
2.7565814E+002
  0
LINE
  8
MED-1
  6
CONTINUOUS
 62
40
 10
1.0334608E+002
 20
2.6890813E+002
 11
1.0332816E+002
 21
2.6890865E+002
  0
ARC
  8
MED-1
  6
CONTINUOUS
 62
40
 10
1.033447E+002
 20
2.6918857E+002
 40
2.8041036E-001
 50
2.6288609E+002
 51
2.6661708E+002
  0
ARC
  8
MED-1
  6
CONTINUOUS
 62
40
 10
1.0334721E+002
 20
2.6921308E+002
 40
3.0503748E-001
 50
2.5947651E+002
 51
2.6298923E+002
  0
ARC
  8
MED-1
  6
CONTINUOUS
 62
40
 10
1.0334935E+002
 20
2.6922491E+002
 40
3.1706532E-001
 50
2.5604193E+002
 51
2.5948726E+002
  0
ARC
  8
MED-1
  6
CONTINUOUS
 62
40
 10
1.0334827E+002
 20
2.6921487E+002
 40
3.0705904E-001
 50
2.5216189E+002
 51
2.5578516E+002
  0
ARC
  8
MED-1
  6
CONTINUOUS
 62
40
 10
1.0334759E+002
 20
2.6921269E+002
 40
3.047772E-001
 50
2.4845281E+002
 51
2.5215739E+002
  0
ARC
  8
MED-1
  6
CONTINUOUS
 62
40
 10
1.0334847E+002
 20
2.6921304E+002
 40
3.0542888E-001
 50
2.4457189E+002
 51
2.4832358E+002
  0
ARC
  8
MED-1
  6
CONTINUOUS
 62
40
 10
1.033487E+002
 20
2.6921377E+002
 40
3.061851E-001
 50
2.4080823E+002
 51
2.44591E+002
  0
ARC
  8
MED-1
  6
CONTINUOUS
 62
40
 10
1.0334834E+002
 20
2.6921121E+002
 40
3.0377374E-001
 50
2.3678381E+002
 51
2.4063388E+002
  0
ARC
  8
MED-1
  6
CONTINUOUS
 62
40
 10
1.0334821E+002
 20
2.6921162E+002
 40
3.0404515E-001
 50
2.3297367E+002
 51
2.368458E+002
  0
ARC
  8
MED-1
  6
CONTINUOUS
 62
40
 10
1.0334894E+002
 20
2.6921143E+002
 40
3.0433578E-001
 50
2.2895445E+002
 51
2.3284168E+002
  0
ARC
  8
MED-1
  6
CONTINUOUS
 62
40
 10
1.0334756E+002
 20
2.6921003E+002
 40
3.0237185E-001
 50
2.2505287E+002
 51
2.289779E+002
  0
ARC
  8
MED-1
  6
CONTINUOUS
 62
40
 10
1.0334435E+002
 20
2.6920574E+002
 40
2.9706876E-001
 50
2.2090882E+002
 51
2.2490687E+002
  0
ARC
  8
MED-1
  6
CONTINUOUS
 62
40
 10
1.0334724E+002
 20
2.6920978E+002
 40
3.0190478E-001
 50
2.1721574E+002
 51
2.2112838E+002
  0
ARC
  8
MED-1
  6
CONTINUOUS
 62
40
 10
1.0335898E+002
 20
2.6921835E+002
 40
3.1643519E-001
 50
2.1346611E+002
 51
2.1716585E+002
  0
ARC
  8
MED-1
  6
CONTINUOUS
 62
40
 10
1.0334306E+002
 20
2.6920532E+002
 40
2.9597588E-001
 50
2.090856E+002
 51
2.13062E+002
  0
ARC
  8
MED-1
  6
CONTINUOUS
 62
40
 10
1.0331231E+002
 20
2.6918761E+002
 40
2.604978E-001
 50
2.0440849E+002
 51
2.0896885E+002
  0
ARC
  8
MED-1
  6
CONTINUOUS
 62
40
 10
1.033523E+002
 20
2.692147E+002
 40
3.0821103E-001
 50
2.0230605E+002
 51
2.0592388E+002
  0
ARC
  8
MED-1
  6
CONTINUOUS
 62
40
 10
1.036342E+002
 20
2.6933302E+002
 40
6.1393744E-001
 50
2.0089688E+002
 51
2.0253636E+002
  0
ARC
  8
MED-1
  6
CONTINUOUS
 62
40
 10
1.0331329E+002
 20
2.6919163E+002
 40
2.6428833E-001
 50
1.9239051E+002
 51
1.970723E+002
  0
ARC
  8
MED-1
  6
CONTINUOUS
 62
40
 10
1.0328593E+002
 20
2.6918654E+002
 40
2.3647093E-001
 50
1.8481037E+002
 51
1.9260881E+002
  0
ARC
  8
MED-1
  6
CONTINUOUS
 62
40
 10
1.0363588E+002
 20
2.6924701E+002
 40
5.9107578E-001
 50
1.8377179E+002
 51
1.8780825E+002
  0
LINE
  8
MED-1
  6
CONTINUOUS
 62
40
 10
1.0304609E+002
 20
2.7710816E+002
 11
1.0304661E+002
 21
2.7712609E+002
  0
ARC
  8
MED-1
  6
CONTINUOUS
 62
40
 10
1.0332645E+002
 20
2.771097E+002
 40
2.8031978E-001
 50
1.7291684E+002
 51
1.7664884E+002
  0
ARC
  8
MED-1
  6
CONTINUOUS
 62
40
 10
1.0335078E+002
 20
2.7710705E+002
 40
3.0479065E-001
 50
1.6947134E+002
 51
1.7298505E+002
  0
ARC
  8
MED-1
  6
CONTINUOUS
 62
40
 10
1.0336277E+002
 20
2.7710491E+002
 40
3.1697531E-001
 50
1.6604144E+002
 51
1.6948775E+002
  0
ARC
  8
MED-1
  6
CONTINUOUS
 62
40
 10
1.0335273E+002
 20
2.7710615E+002
 40
3.0692865E-001
 50
1.6218975E+002
 51
1.6581405E+002
  0
ARC
  8
MED-1
  6
CONTINUOUS
 62
40
 10
1.0335055E+002
 20
2.7710667E+002
 40
3.0469277E-001
 50
1.5845229E+002
 51
1.621579E+002
  0
ARC
  8
MED-1
  6
CONTINUOUS
 62
40
 10
1.0335075E+002
 20
2.7710595E+002
 40
3.0514626E-001
 50
1.5458622E+002
 51
1.5833891E+002
  0
ARC
  8
MED-1
  6
CONTINUOUS
 62
40
 10
1.0335178E+002
 20
2.7710541E+002
 40
3.0631231E-001
 50
1.5079557E+002
 51
1.545793E+002
  0
ARC
  8
MED-1
  6
CONTINUOUS
 62
40
 10
1.0334908E+002
 20
2.7710609E+002
 40
3.0362669E-001
 50
1.4680736E+002
 51
1.5065832E+002
  0
ARC
  8
MED-1
  6
CONTINUOUS
 62
40
 10
1.033495E+002
 20
2.7710592E+002
 40
3.0406722E-001
 50
1.4295045E+002
 51
1.4682339E+002
  0
ARC
  8
MED-1
  6
CONTINUOUS
 62
40
 10
1.0334932E+002
 20
2.7710548E+002
 40
3.0418661E-001
 50
1.3897564E+002
 51
1.4286358E+002
  0
ARC
  8
MED-1
  6
CONTINUOUS
 62
40
 10
1.0334778E+002
 20
2.771067E+002
 40
3.0222153E-001
 50
1.3503372E+002
 51
1.3895931E+002
  0
ARC
  8
MED-1
  6
CONTINUOUS
 62
40
 10
1.0334379E+002
 20
2.7710991E+002
 40
2.9713827E-001
 50
1.3092888E+002
 51
1.349273E+002
  0
ARC
  8
MED-1
  6
CONTINUOUS
 62
40
 10
1.033477E+002
 20
2.7710686E+002
 40
3.0199921E-001
 50
1.2719806E+002
 51
1.3111096E+002
  0
ARC
  8
MED-1
  6
CONTINUOUS
 62
40
 10
1.0335628E+002
 20
2.7709527E+002
 40
3.164215E-001
 50
1.2346603E+002
 51
1.2716593E+002
  0
ARC
  8
MED-1
  6
CONTINUOUS
 62
40
 10
1.0334325E+002
 20
2.7711132E+002
 40
2.9585019E-001
 50
1.1909999E+002
 51
1.2307642E+002
  0
ARC
  8
MED-1
  6
CONTINUOUS
 62
40
 10
1.0332555E+002
 20
2.7714179E+002
 40
2.6061959E-001
 50
1.1439616E+002
 51
1.1895635E+002
  0
ARC
  8
MED-1
  6
CONTINUOUS
 62
40
 10
1.0335265E+002
 20
2.7710192E+002
 40
3.0823548E-001
 50
1.1230619E+002
 51
1.1592374E+002
  0
ARC
  8
MED-1
  6
CONTINUOUS
 62
40
 10
1.0347098E+002
 20
2.7681998E+002
 40
6.1400079E-001
 50
1.1089696E+002
 51
1.1253627E+002
  0
ARC
  8
MED-1
  6
CONTINUOUS
 62
40
 10
1.0332958E+002
 20
2.7714079E+002
 40
2.6443979E-001
 50
1.0238406E+002
 51
1.0706526E+002
  0
ARC
  8
MED-1
  6
CONTINUOUS
 62
40
 10
1.0332449E+002
 20
2.7716827E+002
 40
2.3651374E-001
 50
9.4811077E+001
 51
1.0260811E+002
  0
ARC
  8
MED-1
  6
CONTINUOUS
 62
40
 10
1.0338512E+002
 20
2.7681823E+002
 40
5.9122232E-001
 50
9.3785931E+001
 51
9.7821489E+001
  0
LINE
  8
104
  6
CONTINUOUS
 62
1
 10
1.2234609E+002
 20
2.7535818E+002
 11
1.0834609E+002
 21
2.7535818E+002
  0
LINE
  8
104
  6
CONTINUOUS
 62
1
 10
1.2234609E+002
 20
2.7095811E+002
 11
1.0834609E+002
 21
2.7095811E+002
  0
ARC
  8
MED-1
  6
CONTINUOUS
 62
40
 10
9.6346088E+001
 20
2.6974149E+002
 40
6.0833333
 50
2.7E+002
 51
3.1111209E+002
  0
ARC
  8
MED-1
  6
CONTINUOUS
 62
40
 10
9.6346088E+001
 20
2.6974149E+002
 40
6.0833332
 50
2.2888791E+002
 51
2.7E+002
  0
LINE
  8
106
  6
CENTERLINE
 62
1
 10
1.268005E+002
 20
2.7315815E+002
 11
4.9386426E+001
 21
2.7315815E+002
  0
TEXT
  8
103
  6
CONTINUOUS
 62
150
 10
7.4461791E+001
 20
1.61055E+002
 40
3.5
  1
TS73V
 41
8.0E-001
  0
TEXT
  8
103
  6
CONTINUOUS
 62
150
 10
2.865524E+002
 20
1.6063667E+002
 40
3.5
  1
TS73V mit Montageplatte
 41
8.0E-001
  0
CIRCLE
  8
105
  6
HIDDEN
 62
1
 10
1.1949666E+002
 20
1.150397E+002
 40
1.9
  0
CIRCLE
  8
105
  6
HIDDEN
 62
1
 10
9.9496657E+001
 20
1.150397E+002
 40
1.0
  0
LINE
  8
106
  6
CENTERLINE
 62
1
 10
1.1949666E+002
 20
9.4805299E+001
 11
1.1949666E+002
 21
9.9218499E+001
  0
LINE
  8
106
  6
CENTERLINE
 62
1
 10
1.2189766E+002
 20
1.150397E+002
 11
1.1718966E+002
 21
1.150397E+002
  0
LINE
  8
106
  6
CENTERLINE
 62
1
 10
1.0189766E+002
 20
1.150397E+002
 11
9.7189657E+001
 21
1.150397E+002
  0
LINE
  8
106
  6
CENTERLINE
 62
1
 10
8.1897657E+001
 20
1.150397E+002
 11
7.7189657E+001
 21
1.150397E+002
  0
LINE
  8
106
  6
CENTERLINE
 62
1
 10
8.1897657E+001
 20
9.7039699E+001
 11
7.7189657E+001
 21
9.7039699E+001
  0
LINE
  8
106
  6
CENTERLINE
 62
1
 10
1.0189766E+002
 20
9.7039699E+001
 11
9.7189657E+001
 21
9.7039699E+001
  0
LINE
  8
106
  6
CENTERLINE
 62
1
 10
1.2189766E+002
 20
9.7039699E+001
 11
1.1718966E+002
 21
9.7039699E+001
  0
LINE
  8
106
  6
CENTERLINE
 62
1
 10
9.9496657E+001
 20
9.4805299E+001
 11
9.9496657E+001
 21
9.9218499E+001
  0
LINE
  8
106
  6
CENTERLINE
 62
1
 10
7.9496657E+001
 20
9.4805299E+001
 11
7.9496657E+001
 21
9.9218499E+001
  0
LINE
  8
106
  6
CENTERLINE
 62
1
 10
7.9496657E+001
 20
1.128053E+002
 11
7.9496657E+001
 21
1.172185E+002
  0
LINE
  8
106
  6
CENTERLINE
 62
1
 10
9.9496657E+001
 20
1.128053E+002
 11
9.9496657E+001
 21
1.172185E+002
  0
LINE
  8
106
  6
CENTERLINE
 62
1
 10
1.1949666E+002
 20
1.128053E+002
 11
1.1949666E+002
 21
1.172185E+002
  0
CIRCLE
  8
105
  6
HIDDEN
 62
1
 10
9.9496657E+001
 20
9.7039699E+001
 40
1.0
  0
CIRCLE
  8
105
  6
HIDDEN
 62
1
 10
1.1949666E+002
 20
9.7039699E+001
 40
1.9
  0
CIRCLE
  8
105
  6
HIDDEN
 62
1
 10
9.9496657E+001
 20
9.7039699E+001
 40
1.9
  0
CIRCLE
  8
105
  6
HIDDEN
 62
1
 10
9.9496657E+001
 20
1.150397E+002
 40
1.9
  0
CIRCLE
  8
105
  6
HIDDEN
 62
1
 10
7.9496657E+001
 20
1.150397E+002
 40
1.9
  0
CIRCLE
  8
105
  6
HIDDEN
 62
1
 10
7.9496657E+001
 20
9.7039699E+001
 40
1.9
  0
LINE
  8
106
  6
CENTERLINE
 62
1
 10
7.0696657E+001
 20
9.1739699E+001
 11
7.0696657E+001
 21
1.258397E+002
  0
LINE
  8
104
  6
CONTINUOUS
 62
40
 10
4.0096257E+001
 20
1.180397E+002
 11
4.0096257E+001
 21
9.4039699E+001
  0
LINE
  8
104
  6
CONTINUOUS
 62
40
 10
4.0096257E+001
 20
9.4039699E+001
 11
1.3329666E+002
 21
9.4039699E+001
  0
LINE
  8
104
  6
CONTINUOUS
 62
40
 10
1.3329666E+002
 20
9.4039699E+001
 11
1.3329666E+002
 21
1.180397E+002
  0
LINE
  8
104
  6
CONTINUOUS
 62
40
 10
1.3329666E+002
 20
1.180397E+002
 11
4.0096257E+001
 21
1.180397E+002
  0
LINE
  8
104
  6
CONTINUOUS
 62
40
 10
4.0096257E+001
 20
1.171197E+002
 11
1.3329666E+002
 21
1.171197E+002
  0
LINE
  8
104
  6
CONTINUOUS
 62
40
 10
4.0096257E+001
 20
9.4959699E+001
 11
1.3329666E+002
 21
9.4959699E+001
  0
LINE
  8
104
  6
CONTINUOUS
 62
40
 10
6.4719657E+001
 20
9.4039699E+001
 11
6.7337657E+001
 21
9.2339699E+001
  0
LINE
  8
104
  6
CONTINUOUS
 62
40
 10
6.7337657E+001
 20
9.2339699E+001
 11
7.4054657E+001
 21
9.2339699E+001
  0
LINE
  8
104
  6
CONTINUOUS
 62
40
 10
7.4054657E+001
 20
9.2339699E+001
 11
7.6672657E+001
 21
9.4039699E+001
  0
LINE
  8
104
  6
CONTINUOUS
 62
40
 10
7.6672657E+001
 20
9.4039699E+001
 11
6.4719657E+001
 21
9.4039699E+001
  0
LINE
  8
106
  6
CENTERLINE
 62
1
 10
1.0269666E+002
 20
1.302397E+002
 11
9.7996657E+001
 21
1.302397E+002
  0
LINE
  8
MED-1
  6
CONTINUOUS
 62
40
 10
7.5096869E+001
 20
1.180397E+002
 11
7.5096869E+001
 21
1.238397E+002
  0
LINE
  8
MED-1
  6
CONTINUOUS
 62
40
 10
6.6362441E+001
 20
1.238397E+002
 11
6.6296869E+001
 21
1.238397E+002
  0
LINE
  8
MED-1
  6
CONTINUOUS
 62
40
 10
6.6459929E+001
 20
1.238397E+002
 11
6.6362441E+001
 21
1.238397E+002
  0
LINE
  8
MED-1
  6
CONTINUOUS
 62
40
 10
6.6296869E+001
 20
1.238397E+002
 11
6.6296869E+001
 21
1.180397E+002
  0
LINE
  8
MED-1
  6
CONTINUOUS
 62
40
 10
6.6459929E+001
 20
1.262397E+002
 11
6.6459929E+001
 21
1.238397E+002
  0
LINE
  8
MED-1
  6
CONTINUOUS
 62
40
 10
9.2131049E+001
 20
1.262397E+002
 11
9.2131049E+001
 21
1.238397E+002
  0
LINE
  8
MED-1
  6
CONTINUOUS
 62
40
 10
6.6459929E+001
 20
1.262397E+002
 11
8.3464737E+001
 21
1.262397E+002
  0
LINE
  8
MED-1
  6
CONTINUOUS
 62
40
 10
8.3464737E+001
 20
1.238397E+002
 11
6.6459929E+001
 21
1.238397E+002
  0
LINE
  8
MED-1
  6
CONTINUOUS
 62
40
 10
8.3464737E+001
 20
1.238397E+002
 11
8.3464737E+001
 21
1.262397E+002
  0
LINE
  8
MED-1
  6
CONTINUOUS
 62
40
 10
8.3464737E+001
 20
1.262397E+002
 11
8.3981945E+001
 21
1.262397E+002
  0
LINE
  8
MED-1
  6
CONTINUOUS
 62
40
 10
8.3981945E+001
 20
1.238397E+002
 11
8.3464737E+001
 21
1.238397E+002
  0
LINE
  8
MED-1
  6
CONTINUOUS
 62
40
 10
8.3981945E+001
 20
1.262397E+002
 11
9.2131049E+001
 21
1.262397E+002
  0
LINE
  8
MED-1
  6
CONTINUOUS
 62
40
 10
9.2131049E+001
 20
1.238397E+002
 11
8.3981945E+001
 21
1.238397E+002
  0
LINE
  8
MED-1
  6
CONTINUOUS
 62
40
 10
8.5896653E+001
 20
1.274397E+002
 11
8.5896653E+001
 21
1.2623969E+002
  0
LINE
  8
MED-1
  6
CONTINUOUS
 62
40
 10
8.9896649E+001
 20
1.2623969E+002
 11
8.9896649E+001
 21
1.274397E+002
  0
ARC
  8
MED-1
  6
CONTINUOUS
 62
40
 10
8.7896657E+001
 20
1.2949656E+002
 40
6.0
 50
2.7E+002
 51
2.8947122E+002
  0
ARC
  8
MED-1
  6
CONTINUOUS
 62
40
 10
8.7896657E+001
 20
1.2949656E+002
 40
6.0
 50
2.5052878E+002
 51
2.7E+002
  0
LINE
  8
MED-1
  6
CONTINUOUS
 62
40
 10
9.1896657E+001
 20
1.321197E+002
 11
9.1896657E+001
 21
1.2983971E+002
  0
LINE
  8
MED-1
  6
CONTINUOUS
 62
40
 10
8.3896657E+001
 20
1.297997E+002
 11
8.3896657E+001
 21
1.321197E+002
  0
ARC
  8
MED-1
  6
CONTINUOUS
 62
40
 10
8.4816657E+001
 20
1.321197E+002
 40
9.2E-001
 50
9.0E+001
 51
1.8E+002
  0
ARC
  8
MED-1
  6
CONTINUOUS
 62
40
 10
9.0976657E+001
 20
1.321197E+002
 40
9.2000004E-001
 50
0.0
 51
9.0E+001
  0
LINE
  8
MED-1
  6
CONTINUOUS
 62
40
 10
8.4816657E+001
 20
1.330397E+002
 11
9.0976657E+001
 21
1.330397E+002
  0
LINE
  8
MED-1
  6
CONTINUOUS
 62
40
 10
8.3896657E+001
 20
1.297997E+002
 11
9.1896657E+001
 21
1.297997E+002
  0
LINE
  8
MED-1
  6
CONTINUOUS
 62
40
 10
9.1896657E+001
 20
1.321197E+002
 11
8.3896657E+001
 21
1.321197E+002
  0
LINE
  8
MED-1
  6
CONTINUOUS
 62
40
 10
9.1896657E+001
 20
1.2983971E+002
 11
8.3896657E+001
 21
1.298397E+002
  0
LINE
  8
MED-1
  6
CONTINUOUS
 62
40
 10
8.4296657E+001
 20
1.274397E+002
 11
9.1496657E+001
 21
1.274397E+002
  0
LINE
  8
MED-1
  6
CONTINUOUS
 62
40
 10
9.0242377E+001
 20
1.330797E+002
 11
8.5550937E+001
 21
1.330797E+002
  0
LINE
  8
MED-1
  6
CONTINUOUS
 62
40
 10
9.1896657E+001
 20
1.278397E+002
 11
9.1496657E+001
 21
1.274397E+002
  0
LINE
  8
MED-1
  6
CONTINUOUS
 62
40
 10
8.3896665E+001
 20
1.278397E+002
 11
8.4296657E+001
 21
1.274397E+002
  0
LINE
  8
MED-1
  6
CONTINUOUS
 62
40
 10
9.1896657E+001
 20
1.278397E+002
 11
8.3896665E+001
 21
1.278397E+002
  0
LINE
  8
MED-1
  6
CONTINUOUS
 62
40
 10
9.1896657E+001
 20
1.2983971E+002
 11
9.1896657E+001
 21
1.278397E+002
  0
LINE
  8
MED-1
  6
CONTINUOUS
 62
40
 10
8.3896657E+001
 20
1.297997E+002
 11
8.3896665E+001
 21
1.278397E+002
  0
ARC
  8
MED-1
  6
CONTINUOUS
 62
40
 10
8.7896657E+001
 20
1.298397E+002
 40
4.0
 50
5.4095932E+001
 51
9.0E+001
  0
ARC
  8
MED-1
  6
CONTINUOUS
 62
40
 10
8.7896657E+001
 20
1.298397E+002
 40
4.0
 50
9.0E+001
 51
1.2590407E+002
  0
LINE
  8
MED-1
  6
CONTINUOUS
 62
40
 10
8.6296649E+001
 20
1.3307969E+002
 11
8.6296657E+001
 21
1.330397E+002
  0
LINE
  8
MED-1
  6
CONTINUOUS
 62
40
 10
8.9496653E+001
 20
1.3307969E+002
 11
8.9496657E+001
 21
1.330397E+002
  0
LINE
  8
MED-1
  6
CONTINUOUS
 62
40
 10
1.0269666E+002
 20
1.278397E+002
 11
1.0269666E+002
 21
1.270397E+002
  0
LINE
  8
MED-1
  6
CONTINUOUS
 62
40
 10
1.0269666E+002
 20
1.334397E+002
 11
1.0269666E+002
 21
1.326397E+002
  0
LINE
  8
MED-1
  6
CONTINUOUS
 62
40
 10
1.0269666E+002
 20
1.326397E+002
 11
1.0269666E+002
 21
1.278397E+002
  0
LINE
  8
MED-1
  6
CONTINUOUS
 62
40
 10
7.9496657E+001
 20
1.270397E+002
 11
7.9496657E+001
 21
1.278397E+002
  0
LINE
  8
MED-1
  6
CONTINUOUS
 62
40
 10
7.9496657E+001
 20
1.278397E+002
 11
7.9496657E+001
 21
1.326397E+002
  0
LINE
  8
MED-1
  6
CONTINUOUS
 62
40
 10
7.9496657E+001
 20
1.326397E+002
 11
7.9496657E+001
 21
1.334397E+002
  0
LINE
  8
MED-1
  6
CONTINUOUS
 62
40
 10
1.0230926E+002
 20
1.334397E+002
 11
1.0269666E+002
 21
1.334397E+002
  0
LINE
  8
MED-1
  6
CONTINUOUS
 62
40
 10
7.9496657E+001
 20
1.334397E+002
 11
7.9743733E+001
 21
1.334397E+002
  0
LINE
  8
MED-1
  6
CONTINUOUS
 62
40
 10
7.9743733E+001
 20
1.334397E+002
 11
8.6132045E+001
 21
1.334397E+002
  0
LINE
  8
MED-1
  6
CONTINUOUS
 62
40
 10
8.6132045E+001
 20
1.334397E+002
 11
8.6153097E+001
 21
1.334397E+002
  0
LINE
  8
MED-1
  6
CONTINUOUS
 62
40
 10
8.9640217E+001
 20
1.334397E+002
 11
1.0230926E+002
 21
1.334397E+002
  0
LINE
  8
MED-1
  6
CONTINUOUS
 62
40
 10
1.0269666E+002
 20
1.270397E+002
 11
1.0230926E+002
 21
1.270397E+002
  0
LINE
  8
MED-1
  6
CONTINUOUS
 62
40
 10
1.0230926E+002
 20
1.270397E+002
 11
8.9896657E+001
 21
1.270397E+002
  0
LINE
  8
MED-1
  6
CONTINUOUS
 62
40
 10
8.5896657E+001
 20
1.270397E+002
 11
7.9743733E+001
 21
1.270397E+002
  0
LINE
  8
MED-1
  6
CONTINUOUS
 62
40
 10
7.9743733E+001
 20
1.270397E+002
 11
7.9496657E+001
 21
1.270397E+002
  0
LINE
  8
MED-1
  6
CONTINUOUS
 62
40
 10
1.0230926E+002
 20
1.278397E+002
 11
1.0269666E+002
 21
1.278397E+002
  0
LINE
  8
MED-1
  6
CONTINUOUS
 62
40
 10
7.9496657E+001
 20
1.278397E+002
 11
7.9743733E+001
 21
1.278397E+002
  0
LINE
  8
MED-1
  6
CONTINUOUS
 62
40
 10
7.9743733E+001
 20
1.278397E+002
 11
8.3896665E+001
 21
1.278397E+002
  0
LINE
  8
MED-1
  6
CONTINUOUS
 62
40
 10
9.1896657E+001
 20
1.278397E+002
 11
1.0230926E+002
 21
1.278397E+002
  0
LINE
  8
MED-1
  6
CONTINUOUS
 62
40
 10
1.0269666E+002
 20
1.326397E+002
 11
1.0230926E+002
 21
1.326397E+002
  0
LINE
  8
MED-1
  6
CONTINUOUS
 62
40
 10
1.0230926E+002
 20
1.326397E+002
 11
9.1712941E+001
 21
1.3263969E+002
  0
LINE
  8
MED-1
  6
CONTINUOUS
 62
40
 10
8.4080361E+001
 20
1.3263969E+002
 11
7.9743733E+001
 21
1.326397E+002
  0
LINE
  8
MED-1
  6
CONTINUOUS
 62
40
 10
7.9743733E+001
 20
1.326397E+002
 11
7.9496657E+001
 21
1.326397E+002
  0
LINE
  8
MED-1
  6
CONTINUOUS
 62
40
 10
9.6496657E+001
 20
1.314397E+002
 11
9.8892497E+001
 21
1.314397E+002
  0
ARC
  8
MED-1
  6
CONTINUOUS
 62
40
 10
9.6496657E+001
 20
1.302397E+002
 40
1.2
 50
9.0E+001
 51
2.7E+002
  0
LINE
  8
MED-1
  6
CONTINUOUS
 62
40
 10
9.8892497E+001
 20
1.290397E+002
 11
9.6496657E+001
 21
1.290397E+002
  0
ARC
  8
MED-1
  6
CONTINUOUS
 62
40
 10
8.7896657E+001
 20
1.3160637E+002
 40
2.4333333
 50
5.6898288E+001
 51
9.0E+001
  0
ARC
  8
MED-1
  6
CONTINUOUS
 62
40
 10
8.7896657E+001
 20
1.3160637E+002
 40
2.4333333
 50
9.0E+001
 51
1.2310337E+002
  0
CIRCLE
  8
MED-1
  6
CONTINUOUS
 62
40
 10
8.2096657E+001
 20
1.302397E+002
 40
1.7
  0
LINE
  8
MED-1
  6
CONTINUOUS
 62
40
 10
8.2396665E+001
 20
1.3113969E+002
 11
8.2396665E+001
 21
1.3053969E+002
  0
LINE
  8
MED-1
  6
CONTINUOUS
 62
40
 10
8.1796645E+001
 20
1.3113969E+002
 11
8.2396665E+001
 21
1.3113969E+002
  0
LINE
  8
MED-1
  6
CONTINUOUS
 62
40
 10
8.1796645E+001
 20
1.3053969E+002
 11
8.1796645E+001
 21
1.3113969E+002
  0
LINE
  8
MED-1
  6
CONTINUOUS
 62
40
 10
8.1196649E+001
 20
1.3053969E+002
 11
8.1796645E+001
 21
1.3053969E+002
  0
LINE
  8
MED-1
  6
CONTINUOUS
 62
40
 10
8.1196649E+001
 20
1.299397E+002
 11
8.1196649E+001
 21
1.3053969E+002
  0
LINE
  8
MED-1
  6
CONTINUOUS
 62
40
 10
8.1796645E+001
 20
1.299397E+002
 11
8.1196649E+001
 21
1.299397E+002
  0
LINE
  8
MED-1
  6
CONTINUOUS
 62
40
 10
8.1796645E+001
 20
1.293397E+002
 11
8.1796645E+001
 21
1.299397E+002
  0
LINE
  8
MED-1
  6
CONTINUOUS
 62
40
 10
8.2396665E+001
 20
1.293397E+002
 11
8.1796645E+001
 21
1.293397E+002
  0
LINE
  8
MED-1
  6
CONTINUOUS
 62
40
 10
8.2396665E+001
 20
1.299397E+002
 11
8.2396665E+001
 21
1.293397E+002
  0
LINE
  8
MED-1
  6
CONTINUOUS
 62
40
 10
8.2996661E+001
 20
1.299397E+002
 11
8.2396665E+001
 21
1.299397E+002
  0
LINE
  8
MED-1
  6
CONTINUOUS
 62
40
 10
8.2996661E+001
 20
1.3053969E+002
 11
8.2996661E+001
 21
1.299397E+002
  0
LINE
  8
MED-1
  6
CONTINUOUS
 62
40
 10
8.2396665E+001
 20
1.3053969E+002
 11
8.2996661E+001
 21
1.3053969E+002
  0
CIRCLE
  8
MED-1
  6
CONTINUOUS
 62
40
 10
1.0009666E+002
 20
1.302397E+002
 40
1.7
  0
LINE
  8
MED-1
  6
CONTINUOUS
 62
40
 10
1.0039666E+002
 20
1.3113969E+002
 11
1.0039666E+002
 21
1.3053969E+002
  0
LINE
  8
MED-1
  6
CONTINUOUS
 62
40
 10
9.9796661E+001
 20
1.3113969E+002
 11
1.0039666E+002
 21
1.3113969E+002
  0
LINE
  8
MED-1
  6
CONTINUOUS
 62
40
 10
9.9796661E+001
 20
1.3053969E+002
 11
9.9796661E+001
 21
1.3113969E+002
  0
LINE
  8
MED-1
  6
CONTINUOUS
 62
40
 10
9.9196665E+001
 20
1.3053969E+002
 11
9.9796661E+001
 21
1.3053969E+002
  0
LINE
  8
MED-1
  6
CONTINUOUS
 62
40
 10
9.9196665E+001
 20
1.299397E+002
 11
9.9196665E+001
 21
1.3053969E+002
  0
LINE
  8
MED-1
  6
CONTINUOUS
 62
40
 10
9.9796661E+001
 20
1.299397E+002
 11
9.9196665E+001
 21
1.299397E+002
  0
LINE
  8
MED-1
  6
CONTINUOUS
 62
40
 10
9.9796661E+001
 20
1.293397E+002
 11
9.9796661E+001
 21
1.299397E+002
  0
LINE
  8
MED-1
  6
CONTINUOUS
 62
40
 10
1.0039666E+002
 20
1.293397E+002
 11
9.9796661E+001
 21
1.293397E+002
  0
LINE
  8
MED-1
  6
CONTINUOUS
 62
40
 10
1.0039666E+002
 20
1.299397E+002
 11
1.0039666E+002
 21
1.293397E+002
  0
LINE
  8
MED-1
  6
CONTINUOUS
 62
40
 10
1.0099665E+002
 20
1.299397E+002
 11
1.0039666E+002
 21
1.299397E+002
  0
LINE
  8
MED-1
  6
CONTINUOUS
 62
40
 10
1.0099665E+002
 20
1.3053969E+002
 11
1.0099665E+002
 21
1.299397E+002
  0
LINE
  8
MED-1
  6
CONTINUOUS
 62
40
 10
1.0039666E+002
 20
1.3053969E+002
 11
1.0099665E+002
 21
1.3053969E+002
  0
LINE
  8
106
  6
CENTERLINE
 62
1
 10
1.0219666E+002
 20
1.302397E+002
 11
9.4840261E+001
 21
1.302397E+002
  0
LINE
  8
106
  6
CENTERLINE
 62
1
 10
1.0009666E+002
 20
1.281397E+002
 11
1.0009666E+002
 21
1.323397E+002
  0
LINE
  8
106
  6
CENTERLINE
 62
1
 10
8.4196657E+001
 20
1.302397E+002
 11
7.9996657E+001
 21
1.302397E+002
  0
LINE
  8
106
  6
CENTERLINE
 62
1
 10
8.2096657E+001
 20
1.281397E+002
 11
8.2096657E+001
 21
1.323397E+002
  0
LINE
  8
3
  6
CENTERLINE
 62
1
 10
8.7896657E+001
 20
1.3513115E+002
 11
8.7896657E+001
 21
1.2244849E+002
  0
LINE
  8
3
  6
CENTERLINE
 62
1
 10
7.0696869E+001
 20
9.6280562E+001
 11
7.0696869E+001
 21
1.2685996E+002
  0
CIRCLE
  8
105
  6
HIDDEN
 62
1
 10
5.4108079E+001
 20
5.4357337E+001
 40
1.9
  0
CIRCLE
  8
105
  6
HIDDEN
 62
1
 10
7.4108079E+001
 20
5.4357337E+001
 40
1.0
  0
LINE
  8
106
  6
CENTERLINE
 62
1
 10
5.4108079E+001
 20
3.4122937E+001
 11
5.4108079E+001
 21
3.8536137E+001
  0
LINE
  8
106
  6
CENTERLINE
 62
1
 10
5.1707079E+001
 20
5.4357337E+001
 11
5.6415079E+001
 21
5.4357337E+001
  0
LINE
  8
106
  6
CENTERLINE
 62
1
 10
7.1707079E+001
 20
5.4357337E+001
 11
7.6415079E+001
 21
5.4357337E+001
  0
LINE
  8
106
  6
CENTERLINE
 62
1
 10
9.1707079E+001
 20
5.4357337E+001
 11
9.6415079E+001
 21
5.4357337E+001
  0
LINE
  8
106
  6
CENTERLINE
 62
1
 10
9.1707079E+001
 20
3.6357337E+001
 11
9.6415079E+001
 21
3.6357337E+001
  0
LINE
  8
106
  6
CENTERLINE
 62
1
 10
7.1707079E+001
 20
3.6357337E+001
 11
7.6415079E+001
 21
3.6357337E+001
  0
LINE
  8
106
  6
CENTERLINE
 62
1
 10
5.1707079E+001
 20
3.6357337E+001
 11
5.6415079E+001
 21
3.6357337E+001
  0
LINE
  8
106
  6
CENTERLINE
 62
1
 10
7.4108079E+001
 20
3.4122937E+001
 11
7.4108079E+001
 21
3.8536137E+001
  0
LINE
  8
106
  6
CENTERLINE
 62
1
 10
9.4108079E+001
 20
3.4122937E+001
 11
9.4108079E+001
 21
3.8536137E+001
  0
LINE
  8
106
  6
CENTERLINE
 62
1
 10
9.4108079E+001
 20
5.2122937E+001
 11
9.4108079E+001
 21
5.6536137E+001
  0
LINE
  8
106
  6
CENTERLINE
 62
1
 10
7.4108079E+001
 20
5.2122937E+001
 11
7.4108079E+001
 21
5.6536137E+001
  0
LINE
  8
106
  6
CENTERLINE
 62
1
 10
5.4108079E+001
 20
5.2122937E+001
 11
5.4108079E+001
 21
5.6536137E+001
  0
CIRCLE
  8
105
  6
HIDDEN
 62
1
 10
7.4108079E+001
 20
3.6357337E+001
 40
1.0
  0
CIRCLE
  8
105
  6
HIDDEN
 62
1
 10
5.4108079E+001
 20
3.6357337E+001
 40
1.9
  0
CIRCLE
  8
105
  6
HIDDEN
 62
1
 10
7.4108079E+001
 20
3.6357337E+001
 40
1.9
  0
CIRCLE
  8
105
  6
HIDDEN
 62
1
 10
7.4108079E+001
 20
5.4357337E+001
 40
1.9
  0
CIRCLE
  8
105
  6
HIDDEN
 62
1
 10
9.4108079E+001
 20
5.4357337E+001
 40
1.9
  0
CIRCLE
  8
105
  6
HIDDEN
 62
1
 10
9.4108079E+001
 20
3.6357337E+001
 40
1.9
  0
LINE
  8
106
  6
CENTERLINE
 62
1
 10
1.0290808E+002
 20
3.1057337E+001
 11
1.0290808E+002
 21
6.5157337E+001
  0
LINE
  8
104
  6
CONTINUOUS
 62
40
 10
1.3350848E+002
 20
5.7357337E+001
 11
1.3350848E+002
 21
3.3357337E+001
  0
LINE
  8
104
  6
CONTINUOUS
 62
40
 10
1.3350848E+002
 20
3.3357337E+001
 11
4.0308079E+001
 21
3.3357337E+001
  0
LINE
  8
104
  6
CONTINUOUS
 62
40
 10
4.0308079E+001
 20
3.3357337E+001
 11
4.0308079E+001
 21
5.7357337E+001
  0
LINE
  8
104
  6
CONTINUOUS
 62
40
 10
4.0308079E+001
 20
5.7357337E+001
 11
1.3350848E+002
 21
5.7357337E+001
  0
LINE
  8
104
  6
CONTINUOUS
 62
40
 10
1.3350848E+002
 20
5.6437337E+001
 11
4.0308079E+001
 21
5.6437337E+001
  0
LINE
  8
104
  6
CONTINUOUS
 62
40
 10
1.3350848E+002
 20
3.4277337E+001
 11
4.0308079E+001
 21
3.4277337E+001
  0
LINE
  8
104
  6
CONTINUOUS
 62
40
 10
1.0888508E+002
 20
3.3357337E+001
 11
1.0626708E+002
 21
3.1657337E+001
  0
LINE
  8
104
  6
CONTINUOUS
 62
40
 10
1.0626708E+002
 20
3.1657337E+001
 11
9.9550079E+001
 21
3.1657337E+001
  0
LINE
  8
104
  6
CONTINUOUS
 62
40
 10
9.9550079E+001
 20
3.1657337E+001
 11
9.6932079E+001
 21
3.3357337E+001
  0
LINE
  8
104
  6
CONTINUOUS
 62
40
 10
9.6932079E+001
 20
3.3357337E+001
 11
1.0888508E+002
 21
3.3357337E+001
  0
LINE
  8
106
  6
CENTERLINE
 62
1
 10
7.0908079E+001
 20
6.9557337E+001
 11
7.5608079E+001
 21
6.9557337E+001
  0
LINE
  8
MED-1
  6
CONTINUOUS
 62
40
 10
9.8507867E+001
 20
5.7357337E+001
 11
9.8507867E+001
 21
6.3157341E+001
  0
LINE
  8
MED-1
  6
CONTINUOUS
 62
40
 10
1.072423E+002
 20
6.3157337E+001
 11
1.0730787E+002
 21
6.3157337E+001
  0
LINE
  8
MED-1
  6
CONTINUOUS
 62
40
 10
1.0714481E+002
 20
6.3157341E+001
 11
1.072423E+002
 21
6.3157337E+001
  0
LINE
  8
MED-1
  6
CONTINUOUS
 62
40
 10
1.0730787E+002
 20
6.3157337E+001
 11
1.0730787E+002
 21
5.7357337E+001
  0
LINE
  8
MED-1
  6
CONTINUOUS
 62
40
 10
1.0714481E+002
 20
6.5557337E+001
 11
1.0714481E+002
 21
6.3157341E+001
  0
LINE
  8
MED-1
  6
CONTINUOUS
 62
40
 10
8.1473687E+001
 20
6.5557337E+001
 11
8.1473687E+001
 21
6.3157337E+001
  0
LINE
  8
MED-1
  6
CONTINUOUS
 62
40
 10
1.0714481E+002
 20
6.5557337E+001
 11
9.0139999E+001
 21
6.5557337E+001
  0
LINE
  8
MED-1
  6
CONTINUOUS
 62
40
 10
9.0139999E+001
 20
6.3157337E+001
 11
1.0714481E+002
 21
6.3157341E+001
  0
LINE
  8
MED-1
  6
CONTINUOUS
 62
40
 10
9.0139999E+001
 20
6.3157337E+001
 11
9.0139999E+001
 21
6.5557337E+001
  0
LINE
  8
MED-1
  6
CONTINUOUS
 62
40
 10
9.0139999E+001
 20
6.5557337E+001
 11
8.9622791E+001
 21
6.5557337E+001
  0
LINE
  8
MED-1
  6
CONTINUOUS
 62
40
 10
8.9622791E+001
 20
6.3157337E+001
 11
9.0139999E+001
 21
6.3157337E+001
  0
LINE
  8
MED-1
  6
CONTINUOUS
 62
40
 10
8.9622791E+001
 20
6.5557337E+001
 11
8.1473687E+001
 21
6.5557337E+001
  0
LINE
  8
MED-1
  6
CONTINUOUS
 62
40
 10
8.1473687E+001
 20
6.3157337E+001
 11
8.9622791E+001
 21
6.3157337E+001
  0
LINE
  8
MED-1
  6
CONTINUOUS
 62
40
 10
8.7708083E+001
 20
6.6757341E+001
 11
8.7708083E+001
 21
6.5557329E+001
  0
LINE
  8
MED-1
  6
CONTINUOUS
 62
40
 10
8.3708087E+001
 20
6.5557329E+001
 11
8.3708087E+001
 21
6.6757341E+001
  0
ARC
  8
MED-1
  6
CONTINUOUS
 62
40
 10
8.5708079E+001
 20
6.8814193E+001
 40
6.0
 50
2.5052878E+002
 51
2.7E+002
  0
ARC
  8
MED-1
  6
CONTINUOUS
 62
40
 10
8.5708079E+001
 20
6.8814193E+001
 40
6.0
 50
2.7E+002
 51
2.8947122E+002
  0
LINE
  8
MED-1
  6
CONTINUOUS
 62
40
 10
8.1708079E+001
 20
7.1437337E+001
 11
8.1708079E+001
 21
6.9157349E+001
  0
LINE
  8
MED-1
  6
CONTINUOUS
 62
40
 10
8.9708079E+001
 20
6.9117337E+001
 11
8.9708079E+001
 21
7.1437337E+001
  0
ARC
  8
MED-1
  6
CONTINUOUS
 62
40
 10
8.8788079E+001
 20
7.1437337E+001
 40
9.2E-001
 50
0.0
 51
9.0E+001
  0
ARC
  8
MED-1
  6
CONTINUOUS
 62
40
 10
8.2628079E+001
 20
7.1437337E+001
 40
9.2000004E-001
 50
9.0E+001
 51
1.8E+002
  0
LINE
  8
MED-1
  6
CONTINUOUS
 62
40
 10
8.8788079E+001
 20
7.2357337E+001
 11
8.2628079E+001
 21
7.2357337E+001
  0
LINE
  8
MED-1
  6
CONTINUOUS
 62
40
 10
8.9708079E+001
 20
6.9117337E+001
 11
8.1708079E+001
 21
6.9117337E+001
  0
LINE
  8
MED-1
  6
CONTINUOUS
 62
40
 10
8.1708079E+001
 20
7.1437337E+001
 11
8.9708079E+001
 21
7.1437337E+001
  0
LINE
  8
MED-1
  6
CONTINUOUS
 62
40
 10
8.1708079E+001
 20
6.9157349E+001
 11
8.9708079E+001
 21
6.9157337E+001
  0
LINE
  8
MED-1
  6
CONTINUOUS
 62
40
 10
8.9308079E+001
 20
6.6757337E+001
 11
8.2108079E+001
 21
6.6757337E+001
  0
LINE
  8
MED-1
  6
CONTINUOUS
 62
40
 10
8.3362359E+001
 20
7.2397337E+001
 11
8.8053799E+001
 21
7.2397337E+001
  0
LINE
  8
MED-1
  6
CONTINUOUS
 62
40
 10
8.1708079E+001
 20
6.7157337E+001
 11
8.2108079E+001
 21
6.6757337E+001
  0
LINE
  8
MED-1
  6
CONTINUOUS
 62
40
 10
8.9708071E+001
 20
6.7157337E+001
 11
8.9308079E+001
 21
6.6757337E+001
  0
LINE
  8
MED-1
  6
CONTINUOUS
 62
40
 10
8.1708079E+001
 20
6.7157337E+001
 11
8.9708071E+001
 21
6.7157337E+001
  0
LINE
  8
MED-1
  6
CONTINUOUS
 62
40
 10
8.1708079E+001
 20
6.9157349E+001
 11
8.1708079E+001
 21
6.7157337E+001
  0
LINE
  8
MED-1
  6
CONTINUOUS
 62
40
 10
8.9708079E+001
 20
6.9117337E+001
 11
8.9708071E+001
 21
6.7157337E+001
  0
ARC
  8
MED-1
  6
CONTINUOUS
 62
40
 10
8.5708079E+001
 20
6.9157337E+001
 40
4.0
 50
9.0E+001
 51
1.2590407E+002
  0
ARC
  8
MED-1
  6
CONTINUOUS
 62
40
 10
8.5708079E+001
 20
6.9157337E+001
 40
4.0
 50
5.409593E+001
 51
9.0E+001
  0
LINE
  8
MED-1
  6
CONTINUOUS
 62
40
 10
8.7308087E+001
 20
7.2397329E+001
 11
8.7308079E+001
 21
7.2357337E+001
  0
LINE
  8
MED-1
  6
CONTINUOUS
 62
40
 10
8.4108083E+001
 20
7.2397329E+001
 11
8.4108079E+001
 21
7.2357337E+001
  0
LINE
  8
MED-1
  6
CONTINUOUS
 62
40
 10
7.0908079E+001
 20
6.7157337E+001
 11
7.0908079E+001
 21
6.6357337E+001
  0
LINE
  8
MED-1
  6
CONTINUOUS
 62
40
 10
7.0908079E+001
 20
7.2757337E+001
 11
7.0908079E+001
 21
7.1957337E+001
  0
LINE
  8
MED-1
  6
CONTINUOUS
 62
40
 10
7.0908079E+001
 20
7.1957337E+001
 11
7.0908079E+001
 21
6.7157337E+001
  0
LINE
  8
MED-1
  6
CONTINUOUS
 62
40
 10
9.4108079E+001
 20
6.6357337E+001
 11
9.4108079E+001
 21
6.7157337E+001
  0
LINE
  8
MED-1
  6
CONTINUOUS
 62
40
 10
9.4108079E+001
 20
6.7157337E+001
 11
9.4108079E+001
 21
7.1957337E+001
  0
LINE
  8
MED-1
  6
CONTINUOUS
 62
40
 10
9.4108079E+001
 20
7.1957337E+001
 11
9.4108079E+001
 21
7.2757337E+001
  0
LINE
  8
MED-1
  6
CONTINUOUS
 62
40
 10
7.1295475E+001
 20
7.2757337E+001
 11
7.0908079E+001
 21
7.2757337E+001
  0
LINE
  8
MED-1
  6
CONTINUOUS
 62
40
 10
9.4108079E+001
 20
7.2757337E+001
 11
9.3861003E+001
 21
7.2757337E+001
  0
LINE
  8
MED-1
  6
CONTINUOUS
 62
40
 10
9.3861003E+001
 20
7.2757337E+001
 11
8.7472691E+001
 21
7.2757337E+001
  0
LINE
  8
MED-1
  6
CONTINUOUS
 62
40
 10
8.7472691E+001
 20
7.2757337E+001
 11
8.7451639E+001
 21
7.2757337E+001
  0
LINE
  8
MED-1
  6
CONTINUOUS
 62
40
 10
8.3964519E+001
 20
7.2757337E+001
 11
7.1295475E+001
 21
7.2757337E+001
  0
LINE
  8
MED-1
  6
CONTINUOUS
 62
40
 10
7.0908079E+001
 20
6.6357337E+001
 11
7.1295475E+001
 21
6.6357337E+001
  0
LINE
  8
MED-1
  6
CONTINUOUS
 62
40
 10
7.1295475E+001
 20
6.6357337E+001
 11
8.3708079E+001
 21
6.6357337E+001
  0
LINE
  8
MED-1
  6
CONTINUOUS
 62
40
 10
8.7708079E+001
 20
6.6357337E+001
 11
9.3861003E+001
 21
6.6357337E+001
  0
LINE
  8
MED-1
  6
CONTINUOUS
 62
40
 10
9.3861003E+001
 20
6.6357337E+001
 11
9.4108079E+001
 21
6.6357337E+001
  0
LINE
  8
MED-1
  6
CONTINUOUS
 62
40
 10
7.1295475E+001
 20
6.7157337E+001
 11
7.0908079E+001
 21
6.7157337E+001
  0
LINE
  8
MED-1
  6
CONTINUOUS
 62
40
 10
9.4108079E+001
 20
6.7157337E+001
 11
9.3861003E+001
 21
6.7157337E+001
  0
LINE
  8
MED-1
  6
CONTINUOUS
 62
40
 10
9.3861003E+001
 20
6.7157337E+001
 11
8.9708071E+001
 21
6.7157337E+001
  0
LINE
  8
MED-1
  6
CONTINUOUS
 62
40
 10
8.1708079E+001
 20
6.7157337E+001
 11
7.1295475E+001
 21
6.7157337E+001
  0
LINE
  8
MED-1
  6
CONTINUOUS
 62
40
 10
7.0908079E+001
 20
7.1957337E+001
 11
7.1295475E+001
 21
7.1957337E+001
  0
LINE
  8
MED-1
  6
CONTINUOUS
 62
40
 10
7.1295475E+001
 20
7.1957337E+001
 11
8.1891795E+001
 21
7.1957329E+001
  0
LINE
  8
MED-1
  6
CONTINUOUS
 62
40
 10
8.9524375E+001
 20
7.1957329E+001
 11
9.3861003E+001
 21
7.1957337E+001
  0
LINE
  8
MED-1
  6
CONTINUOUS
 62
40
 10
9.3861003E+001
 20
7.1957337E+001
 11
9.4108079E+001
 21
7.1957337E+001
  0
LINE
  8
MED-1
  6
CONTINUOUS
 62
40
 10
7.7108079E+001
 20
7.0757337E+001
 11
7.4712239E+001
 21
7.0757337E+001
  0
ARC
  8
MED-1
  6
CONTINUOUS
 62
40
 10
7.7108079E+001
 20
6.9557337E+001
 40
1.2
 50
2.7E+002
 51
4.5E+002
  0
LINE
  8
MED-1
  6
CONTINUOUS
 62
40
 10
7.4712239E+001
 20
6.8357337E+001
 11
7.7108079E+001
 21
6.8357337E+001
  0
ARC
  8
MED-1
  6
CONTINUOUS
 62
40
 10
8.5708079E+001
 20
7.0924005E+001
 40
2.4333333
 50
9.0E+001
 51
1.2310171E+002
  0
ARC
  8
MED-1
  6
CONTINUOUS
 62
40
 10
8.5708079E+001
 20
7.0924005E+001
 40
2.4333333
 50
5.689663E+001
 51
9.0E+001
  0
CIRCLE
  8
MED-1
  6
CONTINUOUS
 62
40
 10
9.1508079E+001
 20
6.9557337E+001
 40
1.7
  0
LINE
  8
MED-1
  6
CONTINUOUS
 62
40
 10
9.1208071E+001
 20
7.0457325E+001
 11
9.1208071E+001
 21
6.9857329E+001
  0
LINE
  8
MED-1
  6
CONTINUOUS
 62
40
 10
9.1808091E+001
 20
7.0457325E+001
 11
9.1208071E+001
 21
7.0457325E+001
  0
LINE
  8
MED-1
  6
CONTINUOUS
 62
40
 10
9.1808091E+001
 20
6.9857329E+001
 11
9.1808091E+001
 21
7.0457325E+001
  0
LINE
  8
MED-1
  6
CONTINUOUS
 62
40
 10
9.2408087E+001
 20
6.9857329E+001
 11
9.1808091E+001
 21
6.9857329E+001
  0
LINE
  8
MED-1
  6
CONTINUOUS
 62
40
 10
9.2408087E+001
 20
6.9257333E+001
 11
9.2408087E+001
 21
6.9857329E+001
  0
LINE
  8
MED-1
  6
CONTINUOUS
 62
40
 10
9.1808091E+001
 20
6.9257333E+001
 11
9.2408087E+001
 21
6.9257333E+001
  0
LINE
  8
MED-1
  6
CONTINUOUS
 62
40
 10
9.1808091E+001
 20
6.8657337E+001
 11
9.1808091E+001
 21
6.9257333E+001
  0
LINE
  8
MED-1
  6
CONTINUOUS
 62
40
 10
9.1208071E+001
 20
6.8657337E+001
 11
9.1808091E+001
 21
6.8657337E+001
  0
LINE
  8
MED-1
  6
CONTINUOUS
 62
40
 10
9.1208071E+001
 20
6.9257333E+001
 11
9.1208071E+001
 21
6.8657337E+001
  0
LINE
  8
MED-1
  6
CONTINUOUS
 62
40
 10
9.0608075E+001
 20
6.9257333E+001
 11
9.1208071E+001
 21
6.9257333E+001
  0
LINE
  8
MED-1
  6
CONTINUOUS
 62
40
 10
9.0608075E+001
 20
6.9857329E+001
 11
9.0608075E+001
 21
6.9257333E+001
  0
LINE
  8
MED-1
  6
CONTINUOUS
 62
40
 10
9.1208071E+001
 20
6.9857329E+001
 11
9.0608075E+001
 21
6.9857329E+001
  0
CIRCLE
  8
MED-1
  6
CONTINUOUS
 62
40
 10
7.3508079E+001
 20
6.9557337E+001
 40
1.7
  0
LINE
  8
MED-1
  6
CONTINUOUS
 62
40
 10
7.3208079E+001
 20
7.0457325E+001
 11
7.3208079E+001
 21
6.9857329E+001
  0
LINE
  8
MED-1
  6
CONTINUOUS
 62
40
 10
7.3808075E+001
 20
7.0457325E+001
 11
7.3208079E+001
 21
7.0457325E+001
  0
LINE
  8
MED-1
  6
CONTINUOUS
 62
40
 10
7.3808075E+001
 20
6.9857329E+001
 11
7.3808075E+001
 21
7.0457325E+001
  0
LINE
  8
MED-1
  6
CONTINUOUS
 62
40
 10
7.4408071E+001
 20
6.9857329E+001
 11
7.3808075E+001
 21
6.9857329E+001
  0
LINE
  8
MED-1
  6
CONTINUOUS
 62
40
 10
7.4408071E+001
 20
6.9257333E+001
 11
7.4408071E+001
 21
6.9857329E+001
  0
LINE
  8
MED-1
  6
CONTINUOUS
 62
40
 10
7.3808075E+001
 20
6.9257333E+001
 11
7.4408071E+001
 21
6.9257333E+001
  0
LINE
  8
MED-1
  6
CONTINUOUS
 62
40
 10
7.3808075E+001
 20
6.8657337E+001
 11
7.3808075E+001
 21
6.9257333E+001
  0
LINE
  8
MED-1
  6
CONTINUOUS
 62
40
 10
7.3208079E+001
 20
6.8657337E+001
 11
7.3808075E+001
 21
6.8657337E+001
  0
LINE
  8
MED-1
  6
CONTINUOUS
 62
40
 10
7.3208079E+001
 20
6.9257333E+001
 11
7.3208079E+001
 21
6.8657337E+001
  0
LINE
  8
MED-1
  6
CONTINUOUS
 62
40
 10
7.2608083E+001
 20
6.9257333E+001
 11
7.3208079E+001
 21
6.9257333E+001
  0
LINE
  8
MED-1
  6
CONTINUOUS
 62
40
 10
7.2608083E+001
 20
6.9857329E+001
 11
7.2608083E+001
 21
6.9257333E+001
  0
LINE
  8
MED-1
  6
CONTINUOUS
 62
40
 10
7.3208079E+001
 20
6.9857329E+001
 11
7.2608083E+001
 21
6.9857329E+001
  0
LINE
  8
106
  6
CENTERLINE
 62
1
 10
7.1408079E+001
 20
6.9557337E+001
 11
7.8764475E+001
 21
6.9557337E+001
  0
LINE
  8
106
  6
CENTERLINE
 62
1
 10
7.3508079E+001
 20
6.7457337E+001
 11
7.3508079E+001
 21
7.1657337E+001
  0
LINE
  8
106
  6
CENTERLINE
 62
1
 10
8.9408079E+001
 20
6.9557337E+001
 11
9.3608079E+001
 21
6.9557337E+001
  0
LINE
  8
106
  6
CENTERLINE
 62
1
 10
9.1508079E+001
 20
6.7457337E+001
 11
9.1508079E+001
 21
7.1657337E+001
  0
LINE
  8
3
  6
CENTERLINE
 62
1
 10
8.5708079E+001
 20
7.4448789E+001
 11
8.5708079E+001
 21
6.1766124E+001
  0
LINE
  8
3
  6
CENTERLINE
 62
1
 10
1.0290787E+002
 20
3.5598199E+001
 11
1.0290787E+002
 21
6.6177594E+001
  0
LINE
  8
106
  6
CENTERLINE
 62
1
 10
3.0000149E+002
 20
1.171197E+002
 11
3.0000149E+002
 21
1.2718092E+002
  0
LINE
  8
104
  6
CONTINUOUS
 62
40
 10
2.6940109E+002
 20
1.180397E+002
 11
2.6940109E+002
 21
9.4039699E+001
  0
LINE
  8
104
  6
CONTINUOUS
 62
40
 10
2.6940109E+002
 20
9.4039699E+001
 11
3.6260149E+002
 21
9.4039699E+001
  0
LINE
  8
104
  6
CONTINUOUS
 62
40
 10
3.6260149E+002
 20
9.4039699E+001
 11
3.6260149E+002
 21
1.180397E+002
  0
LINE
  8
104
  6
CONTINUOUS
 62
40
 10
3.6260149E+002
 20
1.180397E+002
 11
2.6940109E+002
 21
1.180397E+002
  0
LINE
  8
104
  6
CONTINUOUS
 62
40
 10
2.6940109E+002
 20
1.171197E+002
 11
3.6260149E+002
 21
1.171197E+002
  0
LINE
  8
104
  6
CONTINUOUS
 62
40
 10
2.6940109E+002
 20
9.4959699E+001
 11
3.6260149E+002
 21
9.4959699E+001
  0
LINE
  8
104
  6
CONTINUOUS
 62
40
 10
2.9402449E+002
 20
9.4039699E+001
 11
2.9664249E+002
 21
9.2339699E+001
  0
LINE
  8
104
  6
CONTINUOUS
 62
40
 10
2.9664249E+002
 20
9.2339699E+001
 11
3.0335949E+002
 21
9.2339699E+001
  0
LINE
  8
104
  6
CONTINUOUS
 62
40
 10
3.0335949E+002
 20
9.2339699E+001
 11
3.0597749E+002
 21
9.4039699E+001
  0
LINE
  8
104
  6
CONTINUOUS
 62
40
 10
3.0597749E+002
 20
9.4039699E+001
 11
2.9402449E+002
 21
9.4039699E+001
  0
LINE
  8
106
  6
CENTERLINE
 62
1
 10
3.3200149E+002
 20
1.298397E+002
 11
3.2730149E+002
 21
1.298397E+002
  0
LINE
  8
MED-1
  6
CONTINUOUS
 62
40
 10
3.044017E+002
 20
1.180397E+002
 11
3.044017E+002
 21
1.238397E+002
  0
LINE
  8
MED-1
  6
CONTINUOUS
 62
40
 10
2.9566727E+002
 20
1.238397E+002
 11
2.956017E+002
 21
1.238397E+002
  0
LINE
  8
MED-1
  6
CONTINUOUS
 62
40
 10
2.9576476E+002
 20
1.238397E+002
 11
2.9566727E+002
 21
1.238397E+002
  0
LINE
  8
MED-1
  6
CONTINUOUS
 62
40
 10
2.956017E+002
 20
1.238397E+002
 11
2.956017E+002
 21
1.180397E+002
  0
LINE
  8
MED-1
  6
CONTINUOUS
 62
40
 10
2.9576476E+002
 20
1.262397E+002
 11
2.9576476E+002
 21
1.238397E+002
  0
LINE
  8
MED-1
  6
CONTINUOUS
 62
40
 10
3.2143588E+002
 20
1.262397E+002
 11
3.2143588E+002
 21
1.238397E+002
  0
LINE
  8
MED-1
  6
CONTINUOUS
 62
40
 10
2.9576476E+002
 20
1.262397E+002
 11
3.1276957E+002
 21
1.262397E+002
  0
LINE
  8
MED-1
  6
CONTINUOUS
 62
40
 10
3.1276957E+002
 20
1.238397E+002
 11
2.9576476E+002
 21
1.238397E+002
  0
LINE
  8
MED-1
  6
CONTINUOUS
 62
40
 10
3.1276957E+002
 20
1.238397E+002
 11
3.1276957E+002
 21
1.262397E+002
  0
LINE
  8
MED-1
  6
CONTINUOUS
 62
40
 10
3.1276957E+002
 20
1.262397E+002
 11
3.1328677E+002
 21
1.262397E+002
  0
LINE
  8
MED-1
  6
CONTINUOUS
 62
40
 10
3.1328677E+002
 20
1.238397E+002
 11
3.1276957E+002
 21
1.238397E+002
  0
LINE
  8
MED-1
  6
CONTINUOUS
 62
40
 10
3.1328677E+002
 20
1.262397E+002
 11
3.2143588E+002
 21
1.262397E+002
  0
LINE
  8
MED-1
  6
CONTINUOUS
 62
40
 10
3.2143588E+002
 20
1.238397E+002
 11
3.1328677E+002
 21
1.238397E+002
  0
LINE
  8
MED-1
  6
CONTINUOUS
 62
40
 10
3.1520148E+002
 20
1.274397E+002
 11
3.1520148E+002
 21
1.2623969E+002
  0
LINE
  8
MED-1
  6
CONTINUOUS
 62
40
 10
3.1920148E+002
 20
1.2623969E+002
 11
3.1920148E+002
 21
1.274397E+002
  0
ARC
  8
MED-1
  6
CONTINUOUS
 62
40
 10
3.1720149E+002
 20
1.2949656E+002
 40
6.0
 50
2.7E+002
 51
2.8947122E+002
  0
ARC
  8
MED-1
  6
CONTINUOUS
 62
40
 10
3.1720149E+002
 20
1.2949656E+002
 40
6.0
 50
2.5052878E+002
 51
2.7E+002
  0
LINE
  8
MED-1
  6
CONTINUOUS
 62
40
 10
3.2120149E+002
 20
1.321197E+002
 11
3.2120149E+002
 21
1.2983971E+002
  0
LINE
  8
MED-1
  6
CONTINUOUS
 62
40
 10
3.1320149E+002
 20
1.297997E+002
 11
3.1320149E+002
 21
1.321197E+002
  0
ARC
  8
MED-1
  6
CONTINUOUS
 62
40
 10
3.1412149E+002
 20
1.321197E+002
 40
9.2E-001
 50
9.0E+001
 51
1.8E+002
  0
ARC
  8
MED-1
  6
CONTINUOUS
 62
40
 10
3.2028149E+002
 20
1.321197E+002
 40
9.2000004E-001
 50
0.0
 51
9.0E+001
  0
LINE
  8
MED-1
  6
CONTINUOUS
 62
40
 10
3.1412149E+002
 20
1.330397E+002
 11
3.2028149E+002
 21
1.330397E+002
  0
LINE
  8
MED-1
  6
CONTINUOUS
 62
40
 10
3.1320149E+002
 20
1.297997E+002
 11
3.2120149E+002
 21
1.297997E+002
  0
LINE
  8
MED-1
  6
CONTINUOUS
 62
40
 10
3.2120149E+002
 20
1.321197E+002
 11
3.1320149E+002
 21
1.321197E+002
  0
LINE
  8
MED-1
  6
CONTINUOUS
 62
40
 10
3.2120149E+002
 20
1.2983971E+002
 11
3.1320149E+002
 21
1.298397E+002
  0
LINE
  8
MED-1
  6
CONTINUOUS
 62
40
 10
3.1360149E+002
 20
1.274397E+002
 11
3.2080149E+002
 21
1.274397E+002
  0
LINE
  8
MED-1
  6
CONTINUOUS
 62
40
 10
3.1954721E+002
 20
1.330797E+002
 11
3.1485577E+002
 21
1.330797E+002
  0
LINE
  8
MED-1
  6
CONTINUOUS
 62
40
 10
3.2120149E+002
 20
1.278397E+002
 11
3.2080149E+002
 21
1.274397E+002
  0
LINE
  8
MED-1
  6
CONTINUOUS
 62
40
 10
3.1320149E+002
 20
1.278397E+002
 11
3.1360149E+002
 21
1.274397E+002
  0
LINE
  8
MED-1
  6
CONTINUOUS
 62
40
 10
3.2120149E+002
 20
1.278397E+002
 11
3.1320149E+002
 21
1.278397E+002
  0
LINE
  8
MED-1
  6
CONTINUOUS
 62
40
 10
3.2120149E+002
 20
1.2983971E+002
 11
3.2120149E+002
 21
1.278397E+002
  0
LINE
  8
MED-1
  6
CONTINUOUS
 62
40
 10
3.1320149E+002
 20
1.297997E+002
 11
3.1320149E+002
 21
1.278397E+002
  0
ARC
  8
MED-1
  6
CONTINUOUS
 62
40
 10
3.1720149E+002
 20
1.298397E+002
 40
4.0
 50
5.4095932E+001
 51
9.0E+001
  0
ARC
  8
MED-1
  6
CONTINUOUS
 62
40
 10
3.1720149E+002
 20
1.298397E+002
 40
4.0
 50
9.0E+001
 51
1.2590407E+002
  0
LINE
  8
MED-1
  6
CONTINUOUS
 62
40
 10
3.1560148E+002
 20
1.3307969E+002
 11
3.1560149E+002
 21
1.330397E+002
  0
LINE
  8
MED-1
  6
CONTINUOUS
 62
40
 10
3.1880148E+002
 20
1.3307969E+002
 11
3.1880149E+002
 21
1.330397E+002
  0
LINE
  8
MED-1
  6
CONTINUOUS
 62
40
 10
3.3200149E+002
 20
1.274397E+002
 11
3.3200149E+002
 21
1.266397E+002
  0
LINE
  8
MED-1
  6
CONTINUOUS
 62
40
 10
3.3200149E+002
 20
1.330397E+002
 11
3.3200149E+002
 21
1.322397E+002
  0
LINE
  8
MED-1
  6
CONTINUOUS
 62
40
 10
3.3200149E+002
 20
1.322397E+002
 11
3.3200149E+002
 21
1.274397E+002
  0
LINE
  8
MED-1
  6
CONTINUOUS
 62
40
 10
3.0880149E+002
 20
1.266397E+002
 11
3.0880149E+002
 21
1.274397E+002
  0
LINE
  8
MED-1
  6
CONTINUOUS
 62
40
 10
3.0880149E+002
 20
1.274397E+002
 11
3.0880149E+002
 21
1.322397E+002
  0
LINE
  8
MED-1
  6
CONTINUOUS
 62
40
 10
3.0880149E+002
 20
1.322397E+002
 11
3.0880149E+002
 21
1.330397E+002
  0
LINE
  8
MED-1
  6
CONTINUOUS
 62
40
 10
3.3161409E+002
 20
1.330397E+002
 11
3.3200149E+002
 21
1.330397E+002
  0
LINE
  8
MED-1
  6
CONTINUOUS
 62
40
 10
3.0880149E+002
 20
1.330397E+002
 11
3.0904856E+002
 21
1.330397E+002
  0
LINE
  8
MED-1
  6
CONTINUOUS
 62
40
 10
3.0904856E+002
 20
1.330397E+002
 11
3.1543687E+002
 21
1.330397E+002
  0
LINE
  8
MED-1
  6
CONTINUOUS
 62
40
 10
3.1543687E+002
 20
1.334397E+002
 11
3.1545793E+002
 21
1.334397E+002
  0
LINE
  8
MED-1
  6
CONTINUOUS
 62
40
 10
3.1894505E+002
 20
1.330397E+002
 11
3.3161409E+002
 21
1.330397E+002
  0
LINE
  8
MED-1
  6
CONTINUOUS
 62
40
 10
3.3200149E+002
 20
1.266397E+002
 11
3.3161409E+002
 21
1.266397E+002
  0
LINE
  8
MED-1
  6
CONTINUOUS
 62
40
 10
3.3161409E+002
 20
1.266397E+002
 11
3.1920149E+002
 21
1.266397E+002
  0
LINE
  8
MED-1
  6
CONTINUOUS
 62
40
 10
3.1520149E+002
 20
1.266397E+002
 11
3.0904856E+002
 21
1.266397E+002
  0
LINE
  8
MED-1
  6
CONTINUOUS
 62
40
 10
3.0904856E+002
 20
1.266397E+002
 11
3.0880149E+002
 21
1.266397E+002
  0
LINE
  8
MED-1
  6
CONTINUOUS
 62
40
 10
3.3161409E+002
 20
1.274397E+002
 11
3.3200149E+002
 21
1.274397E+002
  0
LINE
  8
MED-1
  6
CONTINUOUS
 62
40
 10
3.0880149E+002
 20
1.274397E+002
 11
3.0904856E+002
 21
1.274397E+002
  0
LINE
  8
MED-1
  6
CONTINUOUS
 62
40
 10
3.0904856E+002
 20
1.274397E+002
 11
3.1360149E+002
 21
1.274397E+002
  0
LINE
  8
MED-1
  6
CONTINUOUS
 62
40
 10
3.2080149E+002
 20
1.274397E+002
 11
3.3161409E+002
 21
1.274397E+002
  0
LINE
  8
MED-1
  6
CONTINUOUS
 62
40
 10
3.3200149E+002
 20
1.322397E+002
 11
3.3161409E+002
 21
1.322397E+002
  0
LINE
  8
MED-1
  6
CONTINUOUS
 62
40
 10
3.3161409E+002
 20
1.322397E+002
 11
3.2119363E+002
 21
1.3223969E+002
  0
LINE
  8
MED-1
  6
CONTINUOUS
 62
40
 10
3.1320934E+002
 20
1.3223969E+002
 11
3.0904856E+002
 21
1.322397E+002
  0
LINE
  8
MED-1
  6
CONTINUOUS
 62
40
 10
3.0904856E+002
 20
1.322397E+002
 11
3.0880149E+002
 21
1.322397E+002
  0
LINE
  8
MED-1
  6
CONTINUOUS
 62
40
 10
3.2580149E+002
 20
1.310397E+002
 11
3.2819733E+002
 21
1.310397E+002
  0
ARC
  8
MED-1
  6
CONTINUOUS
 62
40
 10
3.2580149E+002
 20
1.298397E+002
 40
1.2
 50
9.0E+001
 51
2.7E+002
  0
LINE
  8
MED-1
  6
CONTINUOUS
 62
40
 10
3.2819733E+002
 20
1.286397E+002
 11
3.2580149E+002
 21
1.286397E+002
  0
ARC
  8
MED-1
  6
CONTINUOUS
 62
40
 10
3.1720149E+002
 20
1.3160637E+002
 40
2.4333333
 50
5.6898288E+001
 51
9.0E+001
  0
ARC
  8
MED-1
  6
CONTINUOUS
 62
40
 10
3.1720149E+002
 20
1.3160637E+002
 40
2.4333333
 50
9.0E+001
 51
1.2310337E+002
  0
CIRCLE
  8
MED-1
  6
CONTINUOUS
 62
40
 10
3.1140149E+002
 20
1.298397E+002
 40
1.7
  0
LINE
  8
MED-1
  6
CONTINUOUS
 62
40
 10
3.1170149E+002
 20
1.3073969E+002
 11
3.1170149E+002
 21
1.3013969E+002
  0
LINE
  8
MED-1
  6
CONTINUOUS
 62
40
 10
3.1110147E+002
 20
1.3073969E+002
 11
3.1170149E+002
 21
1.3073969E+002
  0
LINE
  8
MED-1
  6
CONTINUOUS
 62
40
 10
3.1110147E+002
 20
1.3013969E+002
 11
3.1110147E+002
 21
1.3073969E+002
  0
LINE
  8
MED-1
  6
CONTINUOUS
 62
40
 10
3.1050148E+002
 20
1.3013969E+002
 11
3.1110147E+002
 21
1.3013969E+002
  0
LINE
  8
MED-1
  6
CONTINUOUS
 62
40
 10
3.1050148E+002
 20
1.295397E+002
 11
3.1050148E+002
 21
1.3013969E+002
  0
LINE
  8
MED-1
  6
CONTINUOUS
 62
40
 10
3.1110147E+002
 20
1.295397E+002
 11
3.1050148E+002
 21
1.295397E+002
  0
LINE
  8
MED-1
  6
CONTINUOUS
 62
40
 10
3.1110147E+002
 20
1.289397E+002
 11
3.1110147E+002
 21
1.295397E+002
  0
LINE
  8
MED-1
  6
CONTINUOUS
 62
40
 10
3.1170149E+002
 20
1.289397E+002
 11
3.1110147E+002
 21
1.289397E+002
  0
LINE
  8
MED-1
  6
CONTINUOUS
 62
40
 10
3.1170149E+002
 20
1.295397E+002
 11
3.1170149E+002
 21
1.289397E+002
  0
LINE
  8
MED-1
  6
CONTINUOUS
 62
40
 10
3.1230149E+002
 20
1.295397E+002
 11
3.1170149E+002
 21
1.295397E+002
  0
LINE
  8
MED-1
  6
CONTINUOUS
 62
40
 10
3.1230149E+002
 20
1.3013969E+002
 11
3.1230149E+002
 21
1.295397E+002
  0
LINE
  8
MED-1
  6
CONTINUOUS
 62
40
 10
3.1170149E+002
 20
1.3013969E+002
 11
3.1230149E+002
 21
1.3013969E+002
  0
CIRCLE
  8
MED-1
  6
CONTINUOUS
 62
40
 10
3.2940149E+002
 20
1.298397E+002
 40
1.7
  0
LINE
  8
MED-1
  6
CONTINUOUS
 62
40
 10
3.2970149E+002
 20
1.3073969E+002
 11
3.2970149E+002
 21
1.3013969E+002
  0
LINE
  8
MED-1
  6
CONTINUOUS
 62
40
 10
3.2910149E+002
 20
1.3073969E+002
 11
3.2970149E+002
 21
1.3073969E+002
  0
LINE
  8
MED-1
  6
CONTINUOUS
 62
40
 10
3.2910149E+002
 20
1.3013969E+002
 11
3.2910149E+002
 21
1.3073969E+002
  0
LINE
  8
MED-1
  6
CONTINUOUS
 62
40
 10
3.2850149E+002
 20
1.3013969E+002
 11
3.2910149E+002
 21
1.3013969E+002
  0
LINE
  8
MED-1
  6
CONTINUOUS
 62
40
 10
3.2850149E+002
 20
1.295397E+002
 11
3.2850149E+002
 21
1.3013969E+002
  0
LINE
  8
MED-1
  6
CONTINUOUS
 62
40
 10
3.2910149E+002
 20
1.295397E+002
 11
3.2850149E+002
 21
1.295397E+002
  0
LINE
  8
MED-1
  6
CONTINUOUS
 62
40
 10
3.2910149E+002
 20
1.289397E+002
 11
3.2910149E+002
 21
1.295397E+002
  0
LINE
  8
MED-1
  6
CONTINUOUS
 62
40
 10
3.2970149E+002
 20
1.289397E+002
 11
3.2910149E+002
 21
1.289397E+002
  0
LINE
  8
MED-1
  6
CONTINUOUS
 62
40
 10
3.2970149E+002
 20
1.295397E+002
 11
3.2970149E+002
 21
1.289397E+002
  0
LINE
  8
MED-1
  6
CONTINUOUS
 62
40
 10
3.3030148E+002
 20
1.295397E+002
 11
3.2970149E+002
 21
1.295397E+002
  0
LINE
  8
MED-1
  6
CONTINUOUS
 62
40
 10
3.3030148E+002
 20
1.3013969E+002
 11
3.3030148E+002
 21
1.295397E+002
  0
LINE
  8
MED-1
  6
CONTINUOUS
 62
40
 10
3.2970149E+002
 20
1.3013969E+002
 11
3.3030148E+002
 21
1.3013969E+002
  0
LINE
  8
106
  6
CENTERLINE
 62
1
 10
3.3150149E+002
 20
1.298397E+002
 11
3.2414509E+002
 21
1.298397E+002
  0
LINE
  8
106
  6
CENTERLINE
 62
1
 10
3.2940149E+002
 20
1.277397E+002
 11
3.2940149E+002
 21
1.319397E+002
  0
LINE
  8
106
  6
CENTERLINE
 62
1
 10
3.1350149E+002
 20
1.298397E+002
 11
3.0930149E+002
 21
1.298397E+002
  0
LINE
  8
106
  6
CENTERLINE
 62
1
 10
3.1140149E+002
 20
1.277397E+002
 11
3.1140149E+002
 21
1.319397E+002
  0
LINE
  8
3
  6
CENTERLINE
 62
1
 10
3.1720149E+002
 20
1.3513115E+002
 11
3.1720149E+002
 21
1.2244849E+002
  0
LINE
  8
MED-0
  6
CONTINUOUS
 62
1
 10
3.4340109E+002
 20
9.7439699E+001
 11
3.4340109E+002
 21
9.4439699E+001
  0
LINE
  8
MED-0
  6
CONTINUOUS
 62
1
 10
2.7940109E+002
 20
9.7439699E+001
 11
2.7940109E+002
 21
9.4439699E+001
  0
CIRCLE
  8
104
  6
CONTINUOUS
 62
40
 10
3.4340109E+002
 20
9.7439699E+001
 40
2.0
  0
CIRCLE
  8
104
  6
CONTINUOUS
 62
40
 10
3.4340109E+002
 20
9.7439699E+001
 40
1.0
  0
CIRCLE
  8
104
  6
CONTINUOUS
 62
40
 10
2.7940109E+002
 20
9.7439699E+001
 40
2.0
  0
CIRCLE
  8
104
  6
CONTINUOUS
 62
40
 10
2.7940109E+002
 20
9.7439699E+001
 40
1.0
  0
CIRCLE
  8
104
  6
CONTINUOUS
 62
40
 10
2.7940109E+002
 20
1.038397E+002
 40
2.0
  0
CIRCLE
  8
104
  6
CONTINUOUS
 62
40
 10
2.7940109E+002
 20
1.038397E+002
 40
1.0
  0
CIRCLE
  8
104
  6
CONTINUOUS
 62
40
 10
2.7940109E+002
 20
1.082397E+002
 40
2.0
  0
CIRCLE
  8
104
  6
CONTINUOUS
 62
40
 10
2.7940109E+002
 20
1.082397E+002
 40
1.0
  0
CIRCLE
  8
104
  6
CONTINUOUS
 62
40
 10
2.7940109E+002
 20
1.146397E+002
 40
2.0
  0
CIRCLE
  8
104
  6
CONTINUOUS
 62
40
 10
2.7940109E+002
 20
1.146397E+002
 40
1.0
  0
CIRCLE
  8
104
  6
CONTINUOUS
 62
40
 10
3.4340109E+002
 20
1.038397E+002
 40
2.0
  0
CIRCLE
  8
104
  6
CONTINUOUS
 62
40
 10
3.4340109E+002
 20
1.038397E+002
 40
1.0
  0
CIRCLE
  8
104
  6
CONTINUOUS
 62
40
 10
3.2260109E+002
 20
1.114397E+002
 40
2.0
  0
CIRCLE
  8
104
  6
CONTINUOUS
 62
40
 10
3.2260109E+002
 20
1.114397E+002
 40
1.0
  0
CIRCLE
  8
104
  6
CONTINUOUS
 62
40
 10
3.2260109E+002
 20
1.006397E+002
 40
2.0
  0
CIRCLE
  8
104
  6
CONTINUOUS
 62
40
 10
3.2260109E+002
 20
1.006397E+002
 40
1.0
  0
CIRCLE
  8
104
  6
CONTINUOUS
 62
40
 10
3.0020109E+002
 20
1.114397E+002
 40
2.0
  0
CIRCLE
  8
104
  6
CONTINUOUS
 62
40
 10
3.0020109E+002
 20
1.114397E+002
 40
1.0
  0
CIRCLE
  8
104
  6
CONTINUOUS
 62
40
 10
3.0020109E+002
 20
1.006397E+002
 40
2.0
  0
CIRCLE
  8
104
  6
CONTINUOUS
 62
40
 10
3.0020109E+002
 20
1.006397E+002
 40
1.0
  0
LINE
  8
MED-0
  6
CONTINUOUS
 62
1
 10
3.4353342E+002
 20
1.1485025E+002
 11
3.4353342E+002
 21
1.1485025E+002
  0
LINE
  8
MED-0
  6
CONTINUOUS
 62
1
 10
3.4353342E+002
 20
1.1485025E+002
 11
3.4353342E+002
 21
1.1485025E+002
  0
LINE
  8
MED-0
  6
CONTINUOUS
 62
1
 10
3.4340109E+002
 20
1.038397E+002
 11
3.4340109E+002
 21
1.038397E+002
  0
LINE
  8
MED-0
  6
CONTINUOUS
 62
1
 10
3.4340109E+002
 20
1.038397E+002
 11
3.4340109E+002
 21
1.038397E+002
  0
LINE
  8
MED-0
  6
CONTINUOUS
 62
1
 10
3.4340109E+002
 20
1.038397E+002
 11
3.4640109E+002
 21
1.038397E+002
  0
LINE
  8
MED-0
  6
CONTINUOUS
 62
1
 10
3.4340109E+002
 20
1.038397E+002
 11
3.4340109E+002
 21
1.068397E+002
  0
LINE
  8
MED-0
  6
CONTINUOUS
 62
1
 10
3.4340109E+002
 20
1.038397E+002
 11
3.4040109E+002
 21
1.038397E+002
  0
LINE
  8
MED-0
  6
CONTINUOUS
 62
1
 10
3.4340109E+002
 20
1.038397E+002
 11
3.4340109E+002
 21
1.008397E+002
  0
LINE
  8
MED-0
  6
CONTINUOUS
 62
1
 10
3.4340109E+002
 20
9.7439699E+001
 11
3.4340109E+002
 21
9.7439699E+001
  0
LINE
  8
MED-0
  6
CONTINUOUS
 62
1
 10
3.4340109E+002
 20
9.7439699E+001
 11
3.4340109E+002
 21
9.7439699E+001
  0
LINE
  8
MED-0
  6
CONTINUOUS
 62
1
 10
3.4340109E+002
 20
9.7439699E+001
 11
3.4640109E+002
 21
9.7439699E+001
  0
LINE
  8
MED-0
  6
CONTINUOUS
 62
1
 10
3.4340109E+002
 20
9.7439699E+001
 11
3.4340109E+002
 21
1.004397E+002
  0
LINE
  8
MED-0
  6
CONTINUOUS
 62
1
 10
3.4340109E+002
 20
9.7439699E+001
 11
3.4040109E+002
 21
9.7439699E+001
  0
LINE
  8
MED-0
  6
CONTINUOUS
 62
1
 10
3.2260109E+002
 20
1.006397E+002
 11
3.2260109E+002
 21
1.006397E+002
  0
LINE
  8
MED-0
  6
CONTINUOUS
 62
1
 10
3.2260109E+002
 20
1.006397E+002
 11
3.2260109E+002
 21
1.006397E+002
  0
LINE
  8
MED-0
  6
CONTINUOUS
 62
1
 10
3.2260109E+002
 20
1.006397E+002
 11
3.2560109E+002
 21
1.006397E+002
  0
LINE
  8
MED-0
  6
CONTINUOUS
 62
1
 10
3.2260109E+002
 20
1.006397E+002
 11
3.2260109E+002
 21
1.036397E+002
  0
LINE
  8
MED-0
  6
CONTINUOUS
 62
1
 10
3.2260109E+002
 20
1.006397E+002
 11
3.1960109E+002
 21
1.006397E+002
  0
LINE
  8
MED-0
  6
CONTINUOUS
 62
1
 10
3.2260109E+002
 20
1.006397E+002
 11
3.2260109E+002
 21
9.7639699E+001
  0
LINE
  8
MED-0
  6
CONTINUOUS
 62
1
 10
3.2260109E+002
 20
1.114397E+002
 11
3.2260109E+002
 21
1.114397E+002
  0
LINE
  8
MED-0
  6
CONTINUOUS
 62
1
 10
3.2260109E+002
 20
1.114397E+002
 11
3.2260109E+002
 21
1.114397E+002
  0
LINE
  8
MED-0
  6
CONTINUOUS
 62
1
 10
3.2260109E+002
 20
1.114397E+002
 11
3.2560109E+002
 21
1.114397E+002
  0
LINE
  8
MED-0
  6
CONTINUOUS
 62
1
 10
3.2260109E+002
 20
1.114397E+002
 11
3.2260109E+002
 21
1.144397E+002
  0
LINE
  8
MED-0
  6
CONTINUOUS
 62
1
 10
3.2260109E+002
 20
1.114397E+002
 11
3.1960109E+002
 21
1.114397E+002
  0
LINE
  8
MED-0
  6
CONTINUOUS
 62
1
 10
3.2260109E+002
 20
1.114397E+002
 11
3.2260109E+002
 21
1.084397E+002
  0
LINE
  8
MED-0
  6
CONTINUOUS
 62
1
 10
3.0020109E+002
 20
1.114397E+002
 11
3.0020109E+002
 21
1.114397E+002
  0
LINE
  8
MED-0
  6
CONTINUOUS
 62
1
 10
3.0020109E+002
 20
1.114397E+002
 11
3.0020109E+002
 21
1.114397E+002
  0
LINE
  8
MED-0
  6
CONTINUOUS
 62
1
 10
3.0020109E+002
 20
1.114397E+002
 11
3.0320109E+002
 21
1.114397E+002
  0
LINE
  8
MED-0
  6
CONTINUOUS
 62
1
 10
3.0020109E+002
 20
1.114397E+002
 11
3.0020109E+002
 21
1.144397E+002
  0
LINE
  8
MED-0
  6
CONTINUOUS
 62
1
 10
3.0020109E+002
 20
1.114397E+002
 11
2.9720109E+002
 21
1.114397E+002
  0
LINE
  8
MED-0
  6
CONTINUOUS
 62
1
 10
3.0020109E+002
 20
1.114397E+002
 11
3.0020109E+002
 21
1.084397E+002
  0
LINE
  8
MED-0
  6
CONTINUOUS
 62
1
 10
3.0020109E+002
 20
1.006397E+002
 11
3.0020109E+002
 21
1.006397E+002
  0
LINE
  8
MED-0
  6
CONTINUOUS
 62
1
 10
3.0020109E+002
 20
1.006397E+002
 11
3.0020109E+002
 21
1.006397E+002
  0
LINE
  8
MED-0
  6
CONTINUOUS
 62
1
 10
3.0020109E+002
 20
1.006397E+002
 11
3.0320109E+002
 21
1.006397E+002
  0
LINE
  8
MED-0
  6
CONTINUOUS
 62
1
 10
3.0020109E+002
 20
1.006397E+002
 11
3.0020109E+002
 21
1.036397E+002
  0
LINE
  8
MED-0
  6
CONTINUOUS
 62
1
 10
3.0020109E+002
 20
1.006397E+002
 11
2.9720109E+002
 21
1.006397E+002
  0
LINE
  8
MED-0
  6
CONTINUOUS
 62
1
 10
3.0020109E+002
 20
1.006397E+002
 11
3.0020109E+002
 21
9.7639699E+001
  0
LINE
  8
MED-0
  6
CONTINUOUS
 62
1
 10
2.7940109E+002
 20
9.7439699E+001
 11
2.7940109E+002
 21
9.7439699E+001
  0
LINE
  8
MED-0
  6
CONTINUOUS
 62
1
 10
2.7940109E+002
 20
9.7439699E+001
 11
2.7940109E+002
 21
9.7439699E+001
  0
LINE
  8
MED-0
  6
CONTINUOUS
 62
1
 10
2.7940109E+002
 20
9.7439699E+001
 11
2.8240109E+002
 21
9.7439699E+001
  0
LINE
  8
MED-0
  6
CONTINUOUS
 62
1
 10
2.7940109E+002
 20
9.7439699E+001
 11
2.7940109E+002
 21
1.004397E+002
  0
LINE
  8
MED-0
  6
CONTINUOUS
 62
1
 10
2.7940109E+002
 20
9.7439699E+001
 11
2.7640109E+002
 21
9.7439699E+001
  0
LINE
  8
MED-0
  6
CONTINUOUS
 62
1
 10
2.7940109E+002
 20
1.038397E+002
 11
2.7940109E+002
 21
1.038397E+002
  0
LINE
  8
MED-0
  6
CONTINUOUS
 62
1
 10
2.7940109E+002
 20
1.038397E+002
 11
2.7940109E+002
 21
1.038397E+002
  0
LINE
  8
MED-0
  6
CONTINUOUS
 62
1
 10
2.7940109E+002
 20
1.038397E+002
 11
2.8240109E+002
 21
1.038397E+002
  0
LINE
  8
MED-0
  6
CONTINUOUS
 62
1
 10
2.7940109E+002
 20
1.038397E+002
 11
2.7940109E+002
 21
1.068397E+002
  0
LINE
  8
MED-0
  6
CONTINUOUS
 62
1
 10
2.7940109E+002
 20
1.038397E+002
 11
2.7640109E+002
 21
1.038397E+002
  0
LINE
  8
MED-0
  6
CONTINUOUS
 62
1
 10
2.7940109E+002
 20
1.038397E+002
 11
2.7940109E+002
 21
1.008397E+002
  0
LINE
  8
MED-0
  6
CONTINUOUS
 62
1
 10
2.7940109E+002
 20
1.082397E+002
 11
2.7940109E+002
 21
1.082397E+002
  0
LINE
  8
MED-0
  6
CONTINUOUS
 62
1
 10
2.7940109E+002
 20
1.082397E+002
 11
2.7940109E+002
 21
1.082397E+002
  0
LINE
  8
MED-0
  6
CONTINUOUS
 62
1
 10
2.7940109E+002
 20
1.082397E+002
 11
2.8240109E+002
 21
1.082397E+002
  0
LINE
  8
MED-0
  6
CONTINUOUS
 62
1
 10
2.7940109E+002
 20
1.082397E+002
 11
2.7940109E+002
 21
1.112397E+002
  0
LINE
  8
MED-0
  6
CONTINUOUS
 62
1
 10
2.7940109E+002
 20
1.082397E+002
 11
2.7640109E+002
 21
1.082397E+002
  0
LINE
  8
MED-0
  6
CONTINUOUS
 62
1
 10
2.7940109E+002
 20
1.082397E+002
 11
2.7940109E+002
 21
1.052397E+002
  0
LINE
  8
MED-0
  6
CONTINUOUS
 62
1
 10
2.7940109E+002
 20
1.146397E+002
 11
2.7940109E+002
 21
1.146397E+002
  0
LINE
  8
MED-0
  6
CONTINUOUS
 62
1
 10
2.7940109E+002
 20
1.146397E+002
 11
2.7940109E+002
 21
1.146397E+002
  0
LINE
  8
MED-0
  6
CONTINUOUS
 62
1
 10
2.7940109E+002
 20
1.146397E+002
 11
2.8240109E+002
 21
1.146397E+002
  0
LINE
  8
MED-0
  6
CONTINUOUS
 62
1
 10
2.7940109E+002
 20
1.146397E+002
 11
2.7940109E+002
 21
1.176397E+002
  0
LINE
  8
MED-0
  6
CONTINUOUS
 62
1
 10
2.7940109E+002
 20
1.146397E+002
 11
2.7640109E+002
 21
1.146397E+002
  0
LINE
  8
MED-0
  6
CONTINUOUS
 62
1
 10
2.7940109E+002
 20
1.146397E+002
 11
2.7940109E+002
 21
1.116397E+002
  0
CIRCLE
  8
104
  6
CONTINUOUS
 62
40
 10
3.4340109E+002
 20
1.082397E+002
 40
2.0
  0
CIRCLE
  8
104
  6
CONTINUOUS
 62
40
 10
3.4340109E+002
 20
1.082397E+002
 40
1.0
  0
LINE
  8
MED-0
  6
CONTINUOUS
 62
1
 10
3.4340109E+002
 20
1.082397E+002
 11
3.4340109E+002
 21
1.082397E+002
  0
LINE
  8
MED-0
  6
CONTINUOUS
 62
1
 10
3.4340109E+002
 20
1.082397E+002
 11
3.4340109E+002
 21
1.082397E+002
  0
LINE
  8
MED-0
  6
CONTINUOUS
 62
1
 10
3.4340109E+002
 20
1.082397E+002
 11
3.4640109E+002
 21
1.082397E+002
  0
LINE
  8
MED-0
  6
CONTINUOUS
 62
1
 10
3.4340109E+002
 20
1.082397E+002
 11
3.4340109E+002
 21
1.112397E+002
  0
LINE
  8
MED-0
  6
CONTINUOUS
 62
1
 10
3.4340109E+002
 20
1.082397E+002
 11
3.4040109E+002
 21
1.082397E+002
  0
LINE
  8
MED-0
  6
CONTINUOUS
 62
1
 10
3.4340109E+002
 20
1.082397E+002
 11
3.4340109E+002
 21
1.052397E+002
  0
CIRCLE
  8
104
  6
CONTINUOUS
 62
40
 10
3.4340109E+002
 20
1.146397E+002
 40
2.0
  0
CIRCLE
  8
104
  6
CONTINUOUS
 62
40
 10
3.4340109E+002
 20
1.146397E+002
 40
1.0
  0
LINE
  8
MED-0
  6
CONTINUOUS
 62
1
 10
3.4340109E+002
 20
1.146397E+002
 11
3.4340109E+002
 21
1.146397E+002
  0
LINE
  8
MED-0
  6
CONTINUOUS
 62
1
 10
3.4340109E+002
 20
1.146397E+002
 11
3.4340109E+002
 21
1.146397E+002
  0
LINE
  8
MED-0
  6
CONTINUOUS
 62
1
 10
3.4340109E+002
 20
1.146397E+002
 11
3.4640109E+002
 21
1.146397E+002
  0
LINE
  8
MED-0
  6
CONTINUOUS
 62
1
 10
3.4340109E+002
 20
1.146397E+002
 11
3.4340109E+002
 21
1.176397E+002
  0
LINE
  8
MED-0
  6
CONTINUOUS
 62
1
 10
3.4340109E+002
 20
1.146397E+002
 11
3.4040109E+002
 21
1.146397E+002
  0
LINE
  8
MED-0
  6
CONTINUOUS
 62
1
 10
3.4340109E+002
 20
1.146397E+002
 11
3.4340109E+002
 21
1.116397E+002
  0
LINE
  8
106
  6
CENTERLINE
 62
1
 10
3.3424299E+002
 20
5.7717597E+001
 11
3.3424299E+002
 21
6.7778821E+001
  0
LINE
  8
104
  6
CONTINUOUS
 62
40
 10
3.6484339E+002
 20
5.8637597E+001
 11
3.6484339E+002
 21
3.4637597E+001
  0
LINE
  8
104
  6
CONTINUOUS
 62
40
 10
3.6484339E+002
 20
3.4637597E+001
 11
2.7164299E+002
 21
3.4637597E+001
  0
LINE
  8
104
  6
CONTINUOUS
 62
40
 10
2.7164299E+002
 20
3.4637597E+001
 11
2.7164299E+002
 21
5.8637597E+001
  0
LINE
  8
104
  6
CONTINUOUS
 62
40
 10
2.7164299E+002
 20
5.8637597E+001
 11
3.6484339E+002
 21
5.8637597E+001
  0
LINE
  8
104
  6
CONTINUOUS
 62
40
 10
3.6484339E+002
 20
5.7717597E+001
 11
2.7164299E+002
 21
5.7717597E+001
  0
LINE
  8
104
  6
CONTINUOUS
 62
40
 10
3.6484339E+002
 20
3.5557597E+001
 11
2.7164299E+002
 21
3.5557597E+001
  0
LINE
  8
104
  6
CONTINUOUS
 62
40
 10
3.4021999E+002
 20
3.4637597E+001
 11
3.3760199E+002
 21
3.2937597E+001
  0
LINE
  8
104
  6
CONTINUOUS
 62
40
 10
3.3760199E+002
 20
3.2937597E+001
 11
3.3088499E+002
 21
3.2937597E+001
  0
LINE
  8
104
  6
CONTINUOUS
 62
40
 10
3.3088499E+002
 20
3.2937597E+001
 11
3.2826699E+002
 21
3.4637597E+001
  0
LINE
  8
104
  6
CONTINUOUS
 62
40
 10
3.2826699E+002
 20
3.4637597E+001
 11
3.4021999E+002
 21
3.4637597E+001
  0
LINE
  8
106
  6
CENTERLINE
 62
1
 10
3.0224299E+002
 20
7.0437597E+001
 11
3.0694299E+002
 21
7.0437597E+001
  0
LINE
  8
MED-1
  6
CONTINUOUS
 62
40
 10
3.2984278E+002
 20
5.8637597E+001
 11
3.2984278E+002
 21
6.4437601E+001
  0
LINE
  8
MED-1
  6
CONTINUOUS
 62
40
 10
3.385772E+002
 20
6.4437597E+001
 11
3.3864278E+002
 21
6.4437597E+001
  0
LINE
  8
MED-1
  6
CONTINUOUS
 62
40
 10
3.3847972E+002
 20
6.4437601E+001
 11
3.385772E+002
 21
6.4437597E+001
  0
LINE
  8
MED-1
  6
CONTINUOUS
 62
40
 10
3.3864278E+002
 20
6.4437597E+001
 11
3.3864278E+002
 21
5.8637597E+001
  0
LINE
  8
MED-1
  6
CONTINUOUS
 62
40
 10
3.3847972E+002
 20
6.6837597E+001
 11
3.3847972E+002
 21
6.4437601E+001
  0
LINE
  8
MED-1
  6
CONTINUOUS
 62
40
 10
3.128086E+002
 20
6.6837597E+001
 11
3.128086E+002
 21
6.4437597E+001
  0
LINE
  8
MED-1
  6
CONTINUOUS
 62
40
 10
3.3847972E+002
 20
6.6837597E+001
 11
3.2147491E+002
 21
6.6837597E+001
  0
LINE
  8
MED-1
  6
CONTINUOUS
 62
40
 10
3.2147491E+002
 20
6.4437597E+001
 11
3.3847972E+002
 21
6.4437601E+001
  0
LINE
  8
MED-1
  6
CONTINUOUS
 62
40
 10
3.2147491E+002
 20
6.4437597E+001
 11
3.2147491E+002
 21
6.6837597E+001
  0
LINE
  8
MED-1
  6
CONTINUOUS
 62
40
 10
3.2147491E+002
 20
6.6837597E+001
 11
3.209577E+002
 21
6.6837597E+001
  0
LINE
  8
MED-1
  6
CONTINUOUS
 62
40
 10
3.209577E+002
 20
6.4437597E+001
 11
3.2147491E+002
 21
6.4437597E+001
  0
LINE
  8
MED-1
  6
CONTINUOUS
 62
40
 10
3.209577E+002
 20
6.6837597E+001
 11
3.128086E+002
 21
6.6837597E+001
  0
LINE
  8
MED-1
  6
CONTINUOUS
 62
40
 10
3.128086E+002
 20
6.4437597E+001
 11
3.209577E+002
 21
6.4437597E+001
  0
LINE
  8
MED-1
  6
CONTINUOUS
 62
40
 10
3.1904299E+002
 20
6.8037601E+001
 11
3.1904299E+002
 21
6.6837589E+001
  0
LINE
  8
MED-1
  6
CONTINUOUS
 62
40
 10
3.15043E+002
 20
6.6837589E+001
 11
3.15043E+002
 21
6.8037601E+001
  0
ARC
  8
MED-1
  6
CONTINUOUS
 62
40
 10
3.1704299E+002
 20
7.0094453E+001
 40
6.0
 50
2.5052878E+002
 51
2.7E+002
  0
ARC
  8
MED-1
  6
CONTINUOUS
 62
40
 10
3.1704299E+002
 20
7.0094453E+001
 40
6.0
 50
2.7E+002
 51
2.8947122E+002
  0
LINE
  8
MED-1
  6
CONTINUOUS
 62
40
 10
3.1304299E+002
 20
7.2717597E+001
 11
3.1304299E+002
 21
7.0437609E+001
  0
LINE
  8
MED-1
  6
CONTINUOUS
 62
40
 10
3.2104299E+002
 20
7.0397597E+001
 11
3.2104299E+002
 21
7.2717597E+001
  0
ARC
  8
MED-1
  6
CONTINUOUS
 62
40
 10
3.2012299E+002
 20
7.2717597E+001
 40
9.2E-001
 50
0.0
 51
9.0E+001
  0
ARC
  8
MED-1
  6
CONTINUOUS
 62
40
 10
3.1396299E+002
 20
7.2717597E+001
 40
9.2000004E-001
 50
9.0E+001
 51
1.8E+002
  0
LINE
  8
MED-1
  6
CONTINUOUS
 62
40
 10
3.2012299E+002
 20
7.3637597E+001
 11
3.1396299E+002
 21
7.3637597E+001
  0
LINE
  8
MED-1
  6
CONTINUOUS
 62
40
 10
3.2104299E+002
 20
7.0397597E+001
 11
3.1304299E+002
 21
7.0397597E+001
  0
LINE
  8
MED-1
  6
CONTINUOUS
 62
40
 10
3.1304299E+002
 20
7.2717597E+001
 11
3.2104299E+002
 21
7.2717597E+001
  0
LINE
  8
MED-1
  6
CONTINUOUS
 62
40
 10
3.1304299E+002
 20
7.0437609E+001
 11
3.2104299E+002
 21
7.0437597E+001
  0
LINE
  8
MED-1
  6
CONTINUOUS
 62
40
 10
3.2064299E+002
 20
6.8037597E+001
 11
3.1344299E+002
 21
6.8037597E+001
  0
LINE
  8
MED-1
  6
CONTINUOUS
 62
40
 10
3.1469727E+002
 20
7.3677597E+001
 11
3.1938871E+002
 21
7.3677597E+001
  0
LINE
  8
MED-1
  6
CONTINUOUS
 62
40
 10
3.1304299E+002
 20
6.8437597E+001
 11
3.1344299E+002
 21
6.8037597E+001
  0
LINE
  8
MED-1
  6
CONTINUOUS
 62
40
 10
3.2104298E+002
 20
6.8437597E+001
 11
3.2064299E+002
 21
6.8037597E+001
  0
LINE
  8
MED-1
  6
CONTINUOUS
 62
40
 10
3.1304299E+002
 20
6.8437597E+001
 11
3.2104298E+002
 21
6.8437597E+001
  0
LINE
  8
MED-1
  6
CONTINUOUS
 62
40
 10
3.1304299E+002
 20
7.0437609E+001
 11
3.1304299E+002
 21
6.8437597E+001
  0
LINE
  8
MED-1
  6
CONTINUOUS
 62
40
 10
3.2104299E+002
 20
7.0397597E+001
 11
3.2104298E+002
 21
6.8437597E+001
  0
ARC
  8
MED-1
  6
CONTINUOUS
 62
40
 10
3.1704299E+002
 20
7.0437597E+001
 40
4.0
 50
9.0E+001
 51
1.2590407E+002
  0
ARC
  8
MED-1
  6
CONTINUOUS
 62
40
 10
3.1704299E+002
 20
7.0437597E+001
 40
4.0
 50
5.409593E+001
 51
9.0E+001
  0
LINE
  8
MED-1
  6
CONTINUOUS
 62
40
 10
3.18643E+002
 20
7.3677589E+001
 11
3.1864299E+002
 21
7.3637597E+001
  0
LINE
  8
MED-1
  6
CONTINUOUS
 62
40
 10
3.1544299E+002
 20
7.3677589E+001
 11
3.1544299E+002
 21
7.3637597E+001
  0
LINE
  8
MED-1
  6
CONTINUOUS
 62
40
 10
3.0224299E+002
 20
6.8037597E+001
 11
3.0224299E+002
 21
6.7237597E+001
  0
LINE
  8
MED-1
  6
CONTINUOUS
 62
40
 10
3.0224299E+002
 20
7.3637597E+001
 11
3.0224299E+002
 21
7.2837597E+001
  0
LINE
  8
MED-1
  6
CONTINUOUS
 62
40
 10
3.0224299E+002
 20
7.2837597E+001
 11
3.0224299E+002
 21
6.8037597E+001
  0
LINE
  8
MED-1
  6
CONTINUOUS
 62
40
 10
3.2544299E+002
 20
6.7237597E+001
 11
3.2544299E+002
 21
6.8037597E+001
  0
LINE
  8
MED-1
  6
CONTINUOUS
 62
40
 10
3.2544299E+002
 20
6.8037597E+001
 11
3.2544299E+002
 21
7.2837597E+001
  0
LINE
  8
MED-1
  6
CONTINUOUS
 62
40
 10
3.2544299E+002
 20
7.2837597E+001
 11
3.2544299E+002
 21
7.3637597E+001
  0
LINE
  8
MED-1
  6
CONTINUOUS
 62
40
 10
3.0263038E+002
 20
7.3637597E+001
 11
3.0224299E+002
 21
7.3637597E+001
  0
LINE
  8
MED-1
  6
CONTINUOUS
 62
40
 10
3.2544299E+002
 20
7.3637597E+001
 11
3.2519591E+002
 21
7.3637597E+001
  0
LINE
  8
MED-1
  6
CONTINUOUS
 62
40
 10
3.2519591E+002
 20
7.3637597E+001
 11
3.188076E+002
 21
7.3637597E+001
  0
LINE
  8
MED-1
  6
CONTINUOUS
 62
40
 10
3.188076E+002
 20
7.4037597E+001
 11
3.1878655E+002
 21
7.4037597E+001
  0
LINE
  8
MED-1
  6
CONTINUOUS
 62
40
 10
3.1529943E+002
 20
7.3637597E+001
 11
3.0263038E+002
 21
7.3637597E+001
  0
LINE
  8
MED-1
  6
CONTINUOUS
 62
40
 10
3.0224299E+002
 20
6.7237597E+001
 11
3.0263038E+002
 21
6.7237597E+001
  0
LINE
  8
MED-1
  6
CONTINUOUS
 62
40
 10
3.0263038E+002
 20
6.7237597E+001
 11
3.1504299E+002
 21
6.7237597E+001
  0
LINE
  8
MED-1
  6
CONTINUOUS
 62
40
 10
3.1904299E+002
 20
6.7237597E+001
 11
3.2519591E+002
 21
6.7237597E+001
  0
LINE
  8
MED-1
  6
CONTINUOUS
 62
40
 10
3.2519591E+002
 20
6.7237597E+001
 11
3.2544299E+002
 21
6.7237597E+001
  0
LINE
  8
MED-1
  6
CONTINUOUS
 62
40
 10
3.0263038E+002
 20
6.8037597E+001
 11
3.0224299E+002
 21
6.8037597E+001
  0
LINE
  8
MED-1
  6
CONTINUOUS
 62
40
 10
3.2544299E+002
 20
6.8037597E+001
 11
3.2519591E+002
 21
6.8037597E+001
  0
LINE
  8
MED-1
  6
CONTINUOUS
 62
40
 10
3.2519591E+002
 20
6.8037597E+001
 11
3.2064299E+002
 21
6.8037597E+001
  0
LINE
  8
MED-1
  6
CONTINUOUS
 62
40
 10
3.1344299E+002
 20
6.8037597E+001
 11
3.0263038E+002
 21
6.8037597E+001
  0
LINE
  8
MED-1
  6
CONTINUOUS
 62
40
 10
3.0224299E+002
 20
7.2837597E+001
 11
3.0263038E+002
 21
7.2837597E+001
  0
LINE
  8
MED-1
  6
CONTINUOUS
 62
40
 10
3.0263038E+002
 20
7.2837597E+001
 11
3.1305085E+002
 21
7.2837589E+001
  0
LINE
  8
MED-1
  6
CONTINUOUS
 62
40
 10
3.2103513E+002
 20
7.2837589E+001
 11
3.2519591E+002
 21
7.2837597E+001
  0
LINE
  8
MED-1
  6
CONTINUOUS
 62
40
 10
3.2519591E+002
 20
7.2837597E+001
 11
3.2544299E+002
 21
7.2837597E+001
  0
LINE
  8
MED-1
  6
CONTINUOUS
 62
40
 10
3.0844299E+002
 20
7.1637597E+001
 11
3.0604715E+002
 21
7.1637597E+001
  0
ARC
  8
MED-1
  6
CONTINUOUS
 62
40
 10
3.0844299E+002
 20
7.0437597E+001
 40
1.2
 50
2.7E+002
 51
4.5E+002
  0
LINE
  8
MED-1
  6
CONTINUOUS
 62
40
 10
3.0604715E+002
 20
6.9237597E+001
 11
3.0844299E+002
 21
6.9237597E+001
  0
ARC
  8
MED-1
  6
CONTINUOUS
 62
40
 10
3.1704299E+002
 20
7.2204265E+001
 40
2.4333333
 50
9.0E+001
 51
1.2310171E+002
  0
ARC
  8
MED-1
  6
CONTINUOUS
 62
40
 10
3.1704299E+002
 20
7.2204265E+001
 40
2.4333333
 50
5.689663E+001
 51
9.0E+001
  0
CIRCLE
  8
MED-1
  6
CONTINUOUS
 62
40
 10
3.2284299E+002
 20
7.0437597E+001
 40
1.7
  0
LINE
  8
MED-1
  6
CONTINUOUS
 62
40
 10
3.2254298E+002
 20
7.1337585E+001
 11
3.2254298E+002
 21
7.0737589E+001
  0
LINE
  8
MED-1
  6
CONTINUOUS
 62
40
 10
3.23143E+002
 20
7.1337585E+001
 11
3.2254298E+002
 21
7.1337585E+001
  0
LINE
  8
MED-1
  6
CONTINUOUS
 62
40
 10
3.23143E+002
 20
7.0737589E+001
 11
3.23143E+002
 21
7.1337585E+001
  0
LINE
  8
MED-1
  6
CONTINUOUS
 62
40
 10
3.23743E+002
 20
7.0737589E+001
 11
3.23143E+002
 21
7.0737589E+001
  0
LINE
  8
MED-1
  6
CONTINUOUS
 62
40
 10
3.23743E+002
 20
7.0137593E+001
 11
3.23743E+002
 21
7.0737589E+001
  0
LINE
  8
MED-1
  6
CONTINUOUS
 62
40
 10
3.23143E+002
 20
7.0137593E+001
 11
3.23743E+002
 21
7.0137593E+001
  0
LINE
  8
MED-1
  6
CONTINUOUS
 62
40
 10
3.23143E+002
 20
6.9537597E+001
 11
3.23143E+002
 21
7.0137593E+001
  0
LINE
  8
MED-1
  6
CONTINUOUS
 62
40
 10
3.2254298E+002
 20
6.9537597E+001
 11
3.23143E+002
 21
6.9537597E+001
  0
LINE
  8
MED-1
  6
CONTINUOUS
 62
40
 10
3.2254298E+002
 20
7.0137593E+001
 11
3.2254298E+002
 21
6.9537597E+001
  0
LINE
  8
MED-1
  6
CONTINUOUS
 62
40
 10
3.2194298E+002
 20
7.0137593E+001
 11
3.2254298E+002
 21
7.0137593E+001
  0
LINE
  8
MED-1
  6
CONTINUOUS
 62
40
 10
3.2194298E+002
 20
7.0737589E+001
 11
3.2194298E+002
 21
7.0137593E+001
  0
LINE
  8
MED-1
  6
CONTINUOUS
 62
40
 10
3.2254298E+002
 20
7.0737589E+001
 11
3.2194298E+002
 21
7.0737589E+001
  0
CIRCLE
  8
MED-1
  6
CONTINUOUS
 62
40
 10
3.0484299E+002
 20
7.0437597E+001
 40
1.7
  0
LINE
  8
MED-1
  6
CONTINUOUS
 62
40
 10
3.0454299E+002
 20
7.1337585E+001
 11
3.0454299E+002
 21
7.0737589E+001
  0
LINE
  8
MED-1
  6
CONTINUOUS
 62
40
 10
3.0514298E+002
 20
7.1337585E+001
 11
3.0454299E+002
 21
7.1337585E+001
  0
LINE
  8
MED-1
  6
CONTINUOUS
 62
40
 10
3.0514298E+002
 20
7.0737589E+001
 11
3.0514298E+002
 21
7.1337585E+001
  0
LINE
  8
MED-1
  6
CONTINUOUS
 62
40
 10
3.0574298E+002
 20
7.0737589E+001
 11
3.0514298E+002
 21
7.0737589E+001
  0
LINE
  8
MED-1
  6
CONTINUOUS
 62
40
 10
3.0574298E+002
 20
7.0137593E+001
 11
3.0574298E+002
 21
7.0737589E+001
  0
LINE
  8
MED-1
  6
CONTINUOUS
 62
40
 10
3.0514298E+002
 20
7.0137593E+001
 11
3.0574298E+002
 21
7.0137593E+001
  0
LINE
  8
MED-1
  6
CONTINUOUS
 62
40
 10
3.0514298E+002
 20
6.9537597E+001
 11
3.0514298E+002
 21
7.0137593E+001
  0
LINE
  8
MED-1
  6
CONTINUOUS
 62
40
 10
3.0454299E+002
 20
6.9537597E+001
 11
3.0514298E+002
 21
6.9537597E+001
  0
LINE
  8
MED-1
  6
CONTINUOUS
 62
40
 10
3.0454299E+002
 20
7.0137593E+001
 11
3.0454299E+002
 21
6.9537597E+001
  0
LINE
  8
MED-1
  6
CONTINUOUS
 62
40
 10
3.0394299E+002
 20
7.0137593E+001
 11
3.0454299E+002
 21
7.0137593E+001
  0
LINE
  8
MED-1
  6
CONTINUOUS
 62
40
 10
3.0394299E+002
 20
7.0737589E+001
 11
3.0394299E+002
 21
7.0137593E+001
  0
LINE
  8
MED-1
  6
CONTINUOUS
 62
40
 10
3.0454299E+002
 20
7.0737589E+001
 11
3.0394299E+002
 21
7.0737589E+001
  0
LINE
  8
106
  6
CENTERLINE
 62
1
 10
3.0274299E+002
 20
7.0437597E+001
 11
3.1009938E+002
 21
7.0437597E+001
  0
LINE
  8
106
  6
CENTERLINE
 62
1
 10
3.0484299E+002
 20
6.8337597E+001
 11
3.0484299E+002
 21
7.2537597E+001
  0
LINE
  8
106
  6
CENTERLINE
 62
1
 10
3.2074299E+002
 20
7.0437597E+001
 11
3.2494299E+002
 21
7.0437597E+001
  0
LINE
  8
106
  6
CENTERLINE
 62
1
 10
3.2284299E+002
 20
6.8337597E+001
 11
3.2284299E+002
 21
7.2537597E+001
  0
LINE
  8
3
  6
CENTERLINE
 62
1
 10
3.1704299E+002
 20
7.5729049E+001
 11
3.1704299E+002
 21
6.3046384E+001
  0
LINE
  8
MED-0
  6
CONTINUOUS
 62
1
 10
2.9084339E+002
 20
3.8037597E+001
 11
2.9084339E+002
 21
3.5037597E+001
  0
LINE
  8
MED-0
  6
CONTINUOUS
 62
1
 10
3.5484339E+002
 20
3.8037597E+001
 11
3.5484339E+002
 21
3.5037597E+001
  0
CIRCLE
  8
104
  6
CONTINUOUS
 62
40
 10
2.9084339E+002
 20
3.8037597E+001
 40
2.0
  0
CIRCLE
  8
104
  6
CONTINUOUS
 62
40
 10
2.9084339E+002
 20
3.8037597E+001
 40
1.0
  0
CIRCLE
  8
104
  6
CONTINUOUS
 62
40
 10
3.5484339E+002
 20
3.8037597E+001
 40
2.0
  0
CIRCLE
  8
104
  6
CONTINUOUS
 62
40
 10
3.5484339E+002
 20
3.8037597E+001
 40
1.0
  0
CIRCLE
  8
104
  6
CONTINUOUS
 62
40
 10
3.5484339E+002
 20
4.4437597E+001
 40
2.0
  0
CIRCLE
  8
104
  6
CONTINUOUS
 62
40
 10
3.5484339E+002
 20
4.4437597E+001
 40
1.0
  0
CIRCLE
  8
104
  6
CONTINUOUS
 62
40
 10
3.5484339E+002
 20
4.8837597E+001
 40
2.0
  0
CIRCLE
  8
104
  6
CONTINUOUS
 62
40
 10
3.5484339E+002
 20
4.8837597E+001
 40
1.0
  0
CIRCLE
  8
104
  6
CONTINUOUS
 62
40
 10
3.5484339E+002
 20
5.5237597E+001
 40
2.0
  0
CIRCLE
  8
104
  6
CONTINUOUS
 62
40
 10
3.5484339E+002
 20
5.5237597E+001
 40
1.0
  0
CIRCLE
  8
104
  6
CONTINUOUS
 62
40
 10
2.9084339E+002
 20
4.4437597E+001
 40
2.0
  0
CIRCLE
  8
104
  6
CONTINUOUS
 62
40
 10
2.9084339E+002
 20
4.4437597E+001
 40
1.0
  0
CIRCLE
  8
104
  6
CONTINUOUS
 62
40
 10
3.1164339E+002
 20
5.2037597E+001
 40
2.0
  0
CIRCLE
  8
104
  6
CONTINUOUS
 62
40
 10
3.1164339E+002
 20
5.2037597E+001
 40
1.0
  0
CIRCLE
  8
104
  6
CONTINUOUS
 62
40
 10
3.1164339E+002
 20
4.1237597E+001
 40
2.0
  0
CIRCLE
  8
104
  6
CONTINUOUS
 62
40
 10
3.1164339E+002
 20
4.1237597E+001
 40
1.0
  0
CIRCLE
  8
104
  6
CONTINUOUS
 62
40
 10
3.3404339E+002
 20
5.2037597E+001
 40
2.0
  0
CIRCLE
  8
104
  6
CONTINUOUS
 62
40
 10
3.3404339E+002
 20
5.2037597E+001
 40
1.0
  0
CIRCLE
  8
104
  6
CONTINUOUS
 62
40
 10
3.3404339E+002
 20
4.1237597E+001
 40
2.0
  0
CIRCLE
  8
104
  6
CONTINUOUS
 62
40
 10
3.3404339E+002
 20
4.1237597E+001
 40
1.0
  0
LINE
  8
MED-0
  6
CONTINUOUS
 62
1
 10
2.9071105E+002
 20
5.5448148E+001
 11
2.9071105E+002
 21
5.5448148E+001
  0
LINE
  8
MED-0
  6
CONTINUOUS
 62
1
 10
2.9071105E+002
 20
5.5448148E+001
 11
2.9071105E+002
 21
5.5448148E+001
  0
LINE
  8
MED-0
  6
CONTINUOUS
 62
1
 10
2.9084339E+002
 20
4.4437597E+001
 11
2.9084339E+002
 21
4.4437597E+001
  0
LINE
  8
MED-0
  6
CONTINUOUS
 62
1
 10
2.9084339E+002
 20
4.4437597E+001
 11
2.9084339E+002
 21
4.4437597E+001
  0
LINE
  8
MED-0
  6
CONTINUOUS
 62
1
 10
2.9084339E+002
 20
4.4437597E+001
 11
2.8784339E+002
 21
4.4437597E+001
  0
LINE
  8
MED-0
  6
CONTINUOUS
 62
1
 10
2.9084339E+002
 20
4.4437597E+001
 11
2.9084339E+002
 21
4.7437597E+001
  0
LINE
  8
MED-0
  6
CONTINUOUS
 62
1
 10
2.9084339E+002
 20
4.4437597E+001
 11
2.9384339E+002
 21
4.4437597E+001
  0
LINE
  8
MED-0
  6
CONTINUOUS
 62
1
 10
2.9084339E+002
 20
4.4437597E+001
 11
2.9084339E+002
 21
4.1437597E+001
  0
LINE
  8
MED-0
  6
CONTINUOUS
 62
1
 10
2.9084339E+002
 20
3.8037597E+001
 11
2.9084339E+002
 21
3.8037597E+001
  0
LINE
  8
MED-0
  6
CONTINUOUS
 62
1
 10
2.9084339E+002
 20
3.8037597E+001
 11
2.9084339E+002
 21
3.8037597E+001
  0
LINE
  8
MED-0
  6
CONTINUOUS
 62
1
 10
2.9084339E+002
 20
3.8037597E+001
 11
2.8784339E+002
 21
3.8037597E+001
  0
LINE
  8
MED-0
  6
CONTINUOUS
 62
1
 10
2.9084339E+002
 20
3.8037597E+001
 11
2.9084339E+002
 21
4.1037597E+001
  0
LINE
  8
MED-0
  6
CONTINUOUS
 62
1
 10
2.9084339E+002
 20
3.8037597E+001
 11
2.9384339E+002
 21
3.8037597E+001
  0
LINE
  8
MED-0
  6
CONTINUOUS
 62
1
 10
3.1164339E+002
 20
4.1237597E+001
 11
3.1164339E+002
 21
4.1237597E+001
  0
LINE
  8
MED-0
  6
CONTINUOUS
 62
1
 10
3.1164339E+002
 20
4.1237597E+001
 11
3.1164339E+002
 21
4.1237597E+001
  0
LINE
  8
MED-0
  6
CONTINUOUS
 62
1
 10
3.1164339E+002
 20
4.1237597E+001
 11
3.0864339E+002
 21
4.1237597E+001
  0
LINE
  8
MED-0
  6
CONTINUOUS
 62
1
 10
3.1164339E+002
 20
4.1237597E+001
 11
3.1164339E+002
 21
4.4237597E+001
  0
LINE
  8
MED-0
  6
CONTINUOUS
 62
1
 10
3.1164339E+002
 20
4.1237597E+001
 11
3.1464339E+002
 21
4.1237597E+001
  0
LINE
  8
MED-0
  6
CONTINUOUS
 62
1
 10
3.1164339E+002
 20
4.1237597E+001
 11
3.1164339E+002
 21
3.8237597E+001
  0
LINE
  8
MED-0
  6
CONTINUOUS
 62
1
 10
3.1164339E+002
 20
5.2037597E+001
 11
3.1164339E+002
 21
5.2037597E+001
  0
LINE
  8
MED-0
  6
CONTINUOUS
 62
1
 10
3.1164339E+002
 20
5.2037597E+001
 11
3.1164339E+002
 21
5.2037597E+001
  0
LINE
  8
MED-0
  6
CONTINUOUS
 62
1
 10
3.1164339E+002
 20
5.2037597E+001
 11
3.0864339E+002
 21
5.2037597E+001
  0
LINE
  8
MED-0
  6
CONTINUOUS
 62
1
 10
3.1164339E+002
 20
5.2037597E+001
 11
3.1164339E+002
 21
5.5037597E+001
  0
LINE
  8
MED-0
  6
CONTINUOUS
 62
1
 10
3.1164339E+002
 20
5.2037597E+001
 11
3.1464339E+002
 21
5.2037597E+001
  0
LINE
  8
MED-0
  6
CONTINUOUS
 62
1
 10
3.1164339E+002
 20
5.2037597E+001
 11
3.1164339E+002
 21
4.9037597E+001
  0
LINE
  8
MED-0
  6
CONTINUOUS
 62
1
 10
3.3404339E+002
 20
5.2037597E+001
 11
3.3404339E+002
 21
5.2037597E+001
  0
LINE
  8
MED-0
  6
CONTINUOUS
 62
1
 10
3.3404339E+002
 20
5.2037597E+001
 11
3.3404339E+002
 21
5.2037597E+001
  0
LINE
  8
MED-0
  6
CONTINUOUS
 62
1
 10
3.3404339E+002
 20
5.2037597E+001
 11
3.3104339E+002
 21
5.2037597E+001
  0
LINE
  8
MED-0
  6
CONTINUOUS
 62
1
 10
3.3404339E+002
 20
5.2037597E+001
 11
3.3404339E+002
 21
5.5037597E+001
  0
LINE
  8
MED-0
  6
CONTINUOUS
 62
1
 10
3.3404339E+002
 20
5.2037597E+001
 11
3.3704339E+002
 21
5.2037597E+001
  0
LINE
  8
MED-0
  6
CONTINUOUS
 62
1
 10
3.3404339E+002
 20
5.2037597E+001
 11
3.3404339E+002
 21
4.9037597E+001
  0
LINE
  8
MED-0
  6
CONTINUOUS
 62
1
 10
3.3404339E+002
 20
4.1237597E+001
 11
3.3404339E+002
 21
4.1237597E+001
  0
LINE
  8
MED-0
  6
CONTINUOUS
 62
1
 10
3.3404339E+002
 20
4.1237597E+001
 11
3.3404339E+002
 21
4.1237597E+001
  0
LINE
  8
MED-0
  6
CONTINUOUS
 62
1
 10
3.3404339E+002
 20
4.1237597E+001
 11
3.3104339E+002
 21
4.1237597E+001
  0
LINE
  8
MED-0
  6
CONTINUOUS
 62
1
 10
3.3404339E+002
 20
4.1237597E+001
 11
3.3404339E+002
 21
4.4237597E+001
  0
LINE
  8
MED-0
  6
CONTINUOUS
 62
1
 10
3.3404339E+002
 20
4.1237597E+001
 11
3.3704339E+002
 21
4.1237597E+001
  0
LINE
  8
MED-0
  6
CONTINUOUS
 62
1
 10
3.3404339E+002
 20
4.1237597E+001
 11
3.3404339E+002
 21
3.8237597E+001
  0
LINE
  8
MED-0
  6
CONTINUOUS
 62
1
 10
3.5484339E+002
 20
3.8037597E+001
 11
3.5484339E+002
 21
3.8037597E+001
  0
LINE
  8
MED-0
  6
CONTINUOUS
 62
1
 10
3.5484339E+002
 20
3.8037597E+001
 11
3.5484339E+002
 21
3.8037597E+001
  0
LINE
  8
MED-0
  6
CONTINUOUS
 62
1
 10
3.5484339E+002
 20
3.8037597E+001
 11
3.5184339E+002
 21
3.8037597E+001
  0
LINE
  8
MED-0
  6
CONTINUOUS
 62
1
 10
3.5484339E+002
 20
3.8037597E+001
 11
3.5484339E+002
 21
4.1037597E+001
  0
LINE
  8
MED-0
  6
CONTINUOUS
 62
1
 10
3.5484339E+002
 20
3.8037597E+001
 11
3.5784339E+002
 21
3.8037597E+001
  0
LINE
  8
MED-0
  6
CONTINUOUS
 62
1
 10
3.5484339E+002
 20
4.4437597E+001
 11
3.5484339E+002
 21
4.4437597E+001
  0
LINE
  8
MED-0
  6
CONTINUOUS
 62
1
 10
3.5484339E+002
 20
4.4437597E+001
 11
3.5484339E+002
 21
4.4437597E+001
  0
LINE
  8
MED-0
  6
CONTINUOUS
 62
1
 10
3.5484339E+002
 20
4.4437597E+001
 11
3.5184339E+002
 21
4.4437597E+001
  0
LINE
  8
MED-0
  6
CONTINUOUS
 62
1
 10
3.5484339E+002
 20
4.4437597E+001
 11
3.5484339E+002
 21
4.7437597E+001
  0
LINE
  8
MED-0
  6
CONTINUOUS
 62
1
 10
3.5484339E+002
 20
4.4437597E+001
 11
3.5784339E+002
 21
4.4437597E+001
  0
LINE
  8
MED-0
  6
CONTINUOUS
 62
1
 10
3.5484339E+002
 20
4.4437597E+001
 11
3.5484339E+002
 21
4.1437597E+001
  0
LINE
  8
MED-0
  6
CONTINUOUS
 62
1
 10
3.5484339E+002
 20
4.8837597E+001
 11
3.5484339E+002
 21
4.8837597E+001
  0
LINE
  8
MED-0
  6
CONTINUOUS
 62
1
 10
3.5484339E+002
 20
4.8837597E+001
 11
3.5484339E+002
 21
4.8837597E+001
  0
LINE
  8
MED-0
  6
CONTINUOUS
 62
1
 10
3.5484339E+002
 20
4.8837597E+001
 11
3.5184339E+002
 21
4.8837597E+001
  0
LINE
  8
MED-0
  6
CONTINUOUS
 62
1
 10
3.5484339E+002
 20
4.8837597E+001
 11
3.5484339E+002
 21
5.1837597E+001
  0
LINE
  8
MED-0
  6
CONTINUOUS
 62
1
 10
3.5484339E+002
 20
4.8837597E+001
 11
3.5784339E+002
 21
4.8837597E+001
  0
LINE
  8
MED-0
  6
CONTINUOUS
 62
1
 10
3.5484339E+002
 20
4.8837597E+001
 11
3.5484339E+002
 21
4.5837597E+001
  0
LINE
  8
MED-0
  6
CONTINUOUS
 62
1
 10
3.5484339E+002
 20
5.5237597E+001
 11
3.5484339E+002
 21
5.5237597E+001
  0
LINE
  8
MED-0
  6
CONTINUOUS
 62
1
 10
3.5484339E+002
 20
5.5237597E+001
 11
3.5484339E+002
 21
5.5237597E+001
  0
LINE
  8
MED-0
  6
CONTINUOUS
 62
1
 10
3.5484339E+002
 20
5.5237597E+001
 11
3.5184339E+002
 21
5.5237597E+001
  0
LINE
  8
MED-0
  6
CONTINUOUS
 62
1
 10
3.5484339E+002
 20
5.5237597E+001
 11
3.5484339E+002
 21
5.8237597E+001
  0
LINE
  8
MED-0
  6
CONTINUOUS
 62
1
 10
3.5484339E+002
 20
5.5237597E+001
 11
3.5784339E+002
 21
5.5237597E+001
  0
LINE
  8
MED-0
  6
CONTINUOUS
 62
1
 10
3.5484339E+002
 20
5.5237597E+001
 11
3.5484339E+002
 21
5.2237597E+001
  0
CIRCLE
  8
104
  6
CONTINUOUS
 62
40
 10
2.9084339E+002
 20
4.8837597E+001
 40
2.0
  0
CIRCLE
  8
104
  6
CONTINUOUS
 62
40
 10
2.9084339E+002
 20
4.8837597E+001
 40
1.0
  0
LINE
  8
MED-0
  6
CONTINUOUS
 62
1
 10
2.9084339E+002
 20
4.8837597E+001
 11
2.9084339E+002
 21
4.8837597E+001
  0
LINE
  8
MED-0
  6
CONTINUOUS
 62
1
 10
2.9084339E+002
 20
4.8837597E+001
 11
2.9084339E+002
 21
4.8837597E+001
  0
LINE
  8
MED-0
  6
CONTINUOUS
 62
1
 10
2.9084339E+002
 20
4.8837597E+001
 11
2.8784339E+002
 21
4.8837597E+001
  0
LINE
  8
MED-0
  6
CONTINUOUS
 62
1
 10
2.9084339E+002
 20
4.8837597E+001
 11
2.9084339E+002
 21
5.1837597E+001
  0
LINE
  8
MED-0
  6
CONTINUOUS
 62
1
 10
2.9084339E+002
 20
4.8837597E+001
 11
2.9384339E+002
 21
4.8837597E+001
  0
LINE
  8
MED-0
  6
CONTINUOUS
 62
1
 10
2.9084339E+002
 20
4.8837597E+001
 11
2.9084339E+002
 21
4.5837597E+001
  0
CIRCLE
  8
104
  6
CONTINUOUS
 62
40
 10
2.9084339E+002
 20
5.5237597E+001
 40
2.0
  0
CIRCLE
  8
104
  6
CONTINUOUS
 62
40
 10
2.9084339E+002
 20
5.5237597E+001
 40
1.0
  0
LINE
  8
MED-0
  6
CONTINUOUS
 62
1
 10
2.9084339E+002
 20
5.5237597E+001
 11
2.9084339E+002
 21
5.5237597E+001
  0
LINE
  8
MED-0
  6
CONTINUOUS
 62
1
 10
2.9084339E+002
 20
5.5237597E+001
 11
2.9084339E+002
 21
5.5237597E+001
  0
LINE
  8
MED-0
  6
CONTINUOUS
 62
1
 10
2.9084339E+002
 20
5.5237597E+001
 11
2.8784339E+002
 21
5.5237597E+001
  0
LINE
  8
MED-0
  6
CONTINUOUS
 62
1
 10
2.9084339E+002
 20
5.5237597E+001
 11
2.9084339E+002
 21
5.8237597E+001
  0
LINE
  8
MED-0
  6
CONTINUOUS
 62
1
 10
2.9084339E+002
 20
5.5237597E+001
 11
2.9384339E+002
 21
5.5237597E+001
  0
LINE
  8
MED-0
  6
CONTINUOUS
 62
1
 10
2.9084339E+002
 20
5.5237597E+001
 11
2.9084339E+002
 21
5.2237597E+001
  0
TEXT
  8
103
  6
CONTINUOUS
 62
150
 10
2.3802674E+002
 20
1.0416284E+002
 40
3.5
  1
TS73V M DL
 41
8.0E-001
  0
TEXT
  8
103
  6
CONTINUOUS
 62
150
 10
2.3802674E+002
 20
4.392409E+001
 40
3.5
  1
TS73V M DR
 41
8.0E-001
  0
TEXT
  8
103
  6
CONTINUOUS
 62
150
 10
1.5059688E+001
 20
4.1414142E+001
 40
3.5
  1
TS73V DR
 41
8.0E-001
  0
TEXT
  8
103
  6
CONTINUOUS
 62
150
 10
1.6314662E+001
 20
1.0458117E+002
 40
3.5
  1
TS73V DL
 41
8.0E-001
  0
ENDSEC
  0
EOF
